Song name
# A B C D E F G H I J K L M N O P Q R S T U V W X Y Z

311 - Tribute tab

This is the entire song, 100% right


Intro:
e---------------------------------------------------------|
H---------------------------------------------------------|
G---------------------------------------------------------|
D---------------------------------------------------------| 
A-----5-787--5-5--0-232-----------------------------------|
E-3-3-----------------------------------------------------|
"This one is dedicated to..."

e---------------------------------------------------------|
H---------------------------------------------------------|
G---------------------------------------------------------|
D-5-5-3--5-5----------------------------------------------| 
A-5-5-3--5-5----------------------------------------------|
E-3-3-1--3-3-0-1-0-1--------------------------------------|
"Gone already..."

e---------------------------------------------------------|
H---------------------------------------------------------|
G---------------------------------------------------------|
D-x-x-5-x-x-x-3--(3times,4th time:)x-x-5-x-x-x-7----------| 
A---------------------------------------------------------|
E---------------------------------------------------------|
"I messed up..."

e-----------------------------------------------------------|
H-----------------------------------------------------------|
G-----------------------------------------------------------|
D-----------------------------------------------------------| 
A-----565-----------------------------454---------454-------|
E-6-6-----4---(3times,then:)------5-5-----3---5-5-----3-----|
"Yeah, unmotivated..."

e-----------------------------------------------------------|
H-----------------------------------------------------------|
G-----------------------------------------------------------|
D-----------------------------------------------------------| 
A--3-2-0-2-----2-0------3-2-0-2-----0---0-------------------|
E----------0-2------------------0-2-------------------------|
"Remember lady of guadelupe"

e-----------------------------------------------------------------|
H-----------------------------------------------------------------|
G-----------------------------------------------------------------|
D----------------------------------------------------22222-66666--| 
A----------------------------------------0-0-0-0-0-0-22222-66666--|
E--3-5-3-5-3-5-35-35-2-5-2-5-2-5-25-25--1-1-1-1-1-1--00000-44444--|
"When i'm at the microphone..."

e-----------------------------------------------------------|
H-----------------------------------------------------------|
G-5---------------------------------------------------------|
D-5---4---3--5-3-3-3-5--------------------------------------| 
A-3---4---3--5-3-3-3-5--------------------------------------|
E-----2---1--3-1-1-1-3--------------------------------------|
"I'm vexing many mofos..."



Thats it...just listening to the song will show you the timing.
Tap to rate this tab
 
# A B C D E F G H I J K L M N O P Q R S T U V W X Y Z