Song name
# A B C D E F G H I J K L M N O P Q R S T U V W X Y Z

311 - Prisoner tab

311 - Prisoner

   Intro,Outro
  e------------------------
  B------------------------
  G------------------------
  D--------------3-3-3-----
  A----------3-5-------5-2-
  E--3--3--3---------------

  e--7--7-5--5--5-7-
  B--8--8-6--6--6-8-
  G-----------------
  D-----------------
  A-----------------
  E-----------------
   
   Intro,Bridge
  e-----------------
  B-----------------
  G-----------------
  D-------0-3-0-----
  A-----------------
  E--3-3--------1-1-

  Verse

  e--10-10--13-13-
  B--12-12--12-12-
  G--12-12--10-10-
  D--12-12--10-10-
  A---------------
  E---------------

  Bridge

  e------------------
  B----------5-6-5---
  G--4-4-7-7-------7-
  D------------------
  A------------------
  E------------------

  That's the whole song.
  Have fun with it. 
  Later.
Tap to rate this tab
# A B C D E F G H I J K L M N O P Q R S T U V W X Y Z