Song name
# A B C D E F G H I J K L M N O P Q R S T U V W X Y Z

311 - Loco tab

Help us improve GuitareTab! Take a short survey!
Song: Loco
Artist: 311
Album: 311
Tabbed by: Eric Stainton (stainton88@hotmail.com)
                                       
++Standard Tuning++


-----------------------------|-----------------------------|
-----------------------------|-----------------------------|
-----------------------------|-----------------------------|
-----------------------------|-----------------------------|
-------------4------4--2---4-|-------------4------4--2---4-|
--0-1-2--2-5----2-5----------|--0-1-2--2-5----2-5----------|

=

Chorus

-------------------------------|-------------------------------|
-------------------------------|-------------------------------|
-------------------------------|-------------------------------|
-------------------------------|-------------------------------|
--------2-4-2------------------|--------2-4-2------------------|
--0-2-4-------4--0-2-0-4--4-2--|--0-2-4-------4--0-2-0-4--4-2--|

=

Bridge

--------------------------|--------------------------|
--------------------------|--------------------------|
--------------------------|--------------------------|
---------------------4----|---------------------4----|
---------4----0-1-2--2----|---------4----0-1-2--2----|
--0-1-2--2----------------|--0-1-2--2----------------|
Related for Loco tab