Song name
# A B C D E F G H I J K L M N O P Q R S T U V W X Y Z

311 - What Do You Do tab

'what do you do'
performed by 311
evolver b-side
music by hexum,miT,chad,p-nut,s.a
tuning:EADGBe
------------------
riff 1
=======
1:-------------------------|
2:-------------------------|
3:-------------------------|
4:-6-5-5-3-3-3-3-3-6-------|
5:-4-3-3-3-3-3-3-3-6-------|
6:-4-3-3-1-1-1-1-1-4-------|

riff 2
=======
1:----------------------------|
2:----------------------------|
3:----------------------------|
4:-6-5--6-5-6-5-6-5-6-5--(10)-|
5:-4-3--6-5-6-5-6-5-6-5--(10)-|
6:-4-3--4-3-4-3-4-3-4-3--(-8)-|
*notes in ( )only played second time

riff 3
=======
1:-----------------------------------------|
2:-----------------------------------------|
3:-3-3-3-3-3-3-3-3-------------------------|
4:-3-3-3-3-3-3-3-3--6-6-6-5-5-5-5-5--------|
5:-1-1-1-1-1-1-1-1--6-6-6-5-5-5-5-5--------|
6:------------------4-4-4-3-3-3-3-3--------|

riff 4
=======
1:--------------------------------------------|
2:--------------------------------------------|
3:--------------------------------------------|
4:-6-6-6-6-6-6-6-6-6-6-6-6-6-6-6--8-7-6-7-6-5-|
5:-6-6-6-6-6-6-6-6-6-6-6-6-6-6-6--8-7-6-7-6-5-|
6:-4-4-4-4-4-4-4-4-4-4-4-4-4-4-4--6-5-4-5-4-3-|
                                  na na na

there's another part with chords that i cant figure out but
they are probably the same notes as the power chords just full chords.
Tap to rate this tab
# A B C D E F G H I J K L M N O P Q R S T U V W X Y Z