Song name
# A B C D E F G H I J K L M N O P Q R S T U V W X Y Z

311 - Something Out Of Nothing tab

Intro:
e|---------------------|
B|---------------------|
G|---------------------|
D|---------------------|  x4
A|---2-0-2-------------|
E|---------2-0-2-0-2---|
     . . . . . . . .    no pm 4th time

Verse:
e|---------------------|
B|---------------------|
G|---------------------|
D|---6-6---6-6-6-6-----|  x8
A|---4-4---4-4-4-4-----|
E|---4-4---4-4-4-4-----|
     .     . . .

e|---------------------------------------|
B|---------------------------------------|
G|---------------------------------------|
D|---9-9---9-9-9-9---9-9-8-8---8-8-8-8---|
A|---7-7---7-7-7-7---7-7-6-6---6-6-6-6---|
E|---7-7---7-7-7-7---7-7-6-6---6-6-6-6---|
     .     . . .     . . .     . . .

e|---------------------|
B|---------------------|
G|---------------------|
D|---6-6---6-6-6-6-----|  x2
A|---4-4---4-4-4-4-----|
E|---4-4---4-4-4-4-----|
     .     . . .

e|---------------------------------------|
B|---------------------------------------|
G|---------------------------------------|
D|---9-9---9-9-9-9---9-9-8-8---8-8-8-8---|
A|---7-7---7-7-7-7---7-7-6-6---6-6-6-6---|
E|---7-7---7-7-7-7---7-7-6-6---6-6-6-6---|
     .     . . .     . . .     . . .

e|---------------------|
B|---------------------|
G|---------------------|
D|---6-6---6-6-6-6-----|  x2
A|---4-4---4-4-4-4-----|
E|---4-4---4-4-4-4-----|
     .     . . .

Pre-Chorus:
e|---------------------------------------------------------------------|
B|---------------------------------------------------------------------|
G|---------------------------------------------------------------------|
D|---9---9-9-9---9-9-9---9-9-9---9-9-9---9-9-9---9-9-9---9-9-9---9-9---|
A|---9---9-9-9---9-9-9---9-9-9---9-9-7---7-7-7---7-7-7---7-7-7---7-7---|
E|---7---7-7-7---7-7-7---7-7-7---7-7-7---7-7-7---7-7-7---7-7-7---7-7---|
         . .     . .     . .     . .     . .     . .     . .     . .

e|---------------------------------------------------------------------|
B|---------------------------------------------------------------------|
G|---------------------------------------------------------------------|
D|---8---8-8-8---8-8-8---8-8-8---8-8-6---6-6-6---6-6-6-------6---------|
A|---6---6-6-6---6-6-6---6-6-6---6-6-6---6-6-6---6-6-6-------6---------|
E|---6---6-6-6---6-6-6---6-6-6---6-6-4---4-4-4---4-4-4-------4---------|
         . .     . .     . .     . .     . .     . .

e|---------------------------------------------------------------------|
B|---------------------------------------------------------------------|
G|---------------------------------------------------------------------|
D|---7-7-7---7-7-7---7-7-7---7-7-7---4-4-4-4-4-4-4-4-4-4-4-4-4-4-4-4---|
A|---5-5-5---5-5-5---5-5-5---5-5-5---4-4-4-4-4-4-4-4-4-4-4-4-4-4-4-4---|
E|---5-5-5---5-5-5---5-5-5---5-5-5---2-2-2-2-2-2-2-2-2-2-2-2-2-2-2-2---|
                                     . . . . . . . .

Chorus:
e|---------------------|
B|---------------------|
G|---------------------|
D|---------------------|  x8
A|---2-0-2-------------|
E|---------2-0-2-0-2---|


Bridge:
e|-------------------------------------------------------------------|
B|-------------------------------------------------------------------|
G|-------------------------------------------------------------------|
D|---9-9---9-9-9-9---9-9---9-9-9-9---6-6---6-6-6-6---6-6---6-6-6-6---| x2
A|---7-7---7-7-7-7---7-7---7-7-7-7---4-4---4-4-4-4---4-4---4-4-4-4---|
E|---7-7---7-7-7-7---7-7---7-7-7-7---4-4---4-4-4-4---4-4---4-4-4-4---|

e|---------------------------------------------------------------|
B|---------------------------------------------------------------|
G|---------------------------------------------------------------|
D|---9---9-9-9---9-9-9---9-9-9---9-9-6---6-6-6---6-6-6---6-6-6---|
A|---9---9-9-9---9-9-9---9-9-9---9-9-6---6-6-6---6-6-6---6-6-6---|
E|---7---7-7-7---7-7-7---7-7-7---7-7-4---4-4-4---4-4-4---4-4-4---|
         . .     . .     . .     . .     . .     . .     . .

e|-------------------------------------|
B|-------------------------------------|
G|-------------------------------------|
D|---4-4-4-4-4-4-4-4-4-4-4-4-4-4-4-4---|
A|---4-4-4-4-4-4-4-4-4-4-4-4-4-4-4-4---|
E|---2-2-2-2-2-2-2-2-2-2-2-2-2-2-2-2---|
     . . . . . . . .

Outro:
e|-------------------|
B|-------------------|
G|-------------------|
D|---6-6---6-6-6-6---| x8
A|---4-4---4-4-4-4---|
E|---4-4---4-4-4-4---|
     . .   . . . .
Tap to rate this tab
 
# A B C D E F G H I J K L M N O P Q R S T U V W X Y Z