Song name
# A B C D E F G H I J K L M N O P Q R S T U V W X Y Z

311 - Golden Sunlight tab

311: Golden Sunlight
Tabbed by Julian Loiacono

Tuning: Standard (eBGDAE)

Main riff:
e|-----12-9-7--|
B|-----12-9-7--|
G|-------------|
D|-------------|
A|-------------|
E|--0----------|

Fill one:
"far and away..."
e|--4-7-7-4-7-9-11-9-7--|
B|--4-7-7-4-7-9-11-9-7--|
G|----------------------|
D|----------------------|
A|----------------------|
E|----------------------|

Fill two:
"the golden sunlight"
e|------------------------|
B|----7-9------7s9-9-9-9--|
G|--7-7-9------7s9-9-9-9--|
D|--7-----11-9------------|
A|--------11-9------------|
E|------------------------|

Chorus:
"there's a door open..."
   E C#m B  A
e|-7--4--2--5--|
B|-9--5--4--5--|
G|-9--6--4--6--|
D|-9--6--4--7--|
A|-7--4--2--7--|
E|-7--4--2--5--|

Riff two:
"sweetheart..."
e|-----------------------------------------|
B|-----------------------------------------|
G|-----------------------------------------|
D|----------------767----------------------|
A|--57777540-57777----45555420-------------|
E|-0--------0--------0--------000020032034-|
Tap to rate this tab
# A B C D E F G H I J K L M N O P Q R S T U V W X Y Z