Song name
# A B C D E F G H I J K L M N O P Q R S T U V W X Y Z

311 - Too Much Too Fast tab

This is just the intro for Too Much Too Fast by 311. 
Off their 2009 Release, Uplifter. I haven't tried to
figure out the rest of the song. If you can please 
don't be afraid to take my intro and put it into
your own tab, just give me proper credit where 
credit is due. Well, here we go.

Guitar 1(Nick Hexum)
|---------------------------|
|---------------------------|
|---------------------------| x2
|-7-9-9/11-9-11-9\7---------|
|---------------------------|
|---------------------------|

I don't know about this...
|------------------------------------------|
|------------------------------------------|
|------------------------------------------|
|-7-9-9/11-9-11-9\7---7-9-9/12-11-12-12\14-|
|------------------------------------------|
|------------------------------------------|

|---------------------------|
|---------------------------|
|---------------------------|
|-7-9-9/11-9-11-9\7----7/9--|
|---------------------------|
|---------------------------|

Guitar 2 (Tim Mahoney):

Come in around the second time.

|-----9------10------9---10-|
|-/10----/12-----/10-----12-|
|---------------------------|
|---------------------------|
|---------------------------|
|---------------------------|

Go Go Gadget Rest of the tab. :D Rate and Comment! Thanks!
Tap to rate this tab
 
# A B C D E F G H I J K L M N O P Q R S T U V W X Y Z