Song name
# A B C D E F G H I J K L M N O P Q R S T U V W X Y Z

311 - Too Much Too Fast tab

Author/Artist: 311
Title: Too Much Too Fast
Album: Uplifter
Transcribed by: Nick Barry
Email: nick.barry at gmail.com

The song "Too Much Too Fast" off of the new album Uplifter. Incredible song with
a very beatles-esque vibe. This is as close as I could get in about 20 minutes
worth of listening to the song over and over. I know it isn't 100% accurate
but it should help those who want a good idea of how this song is played.
Listen to the album to get the rhythm down.

Intro:
------------------------------|--------9------------10------------------------|
------------------------------|--8/10--------10/12----------------------------|
------------------------------|-----------------------------------------------|
--7--9--9/11----9--11--9--7---|-----------------------------------------------|
------------------------------|-----------------------------------------------|
------------------------------|-----------------------------------------------|
 2X    Intro Guitar 1 (Nick)      Intro Guitar 2 (Tim)

Verse:
-5---5---5---5---------------|-7---7---7---7----------------------------------|
-7---7---7---7---------------|-7---7---7---7----------------------------------|
-6---6---6---6---------------|-7---7---7---7----------------------------------|
-5---5---5---5---------------|-5---5---5---5----------------------------------|
-5---5---5---5---------------|-5---5---5---5----------------------------------|
-5---5---5---5---------------|------------------------------------------------|
 Rifling throuh.....           I can finally tell.....


---------------------|---------------------------------------------3----------|
---------------------|---------------------------------------------3----------|
---------------------|---------------------------------------------4----------|
---------------------|--4-4---------2-2----------------------------5----------|
-4-----4-4-----------|--2-2---5-5---0-0---4-4----------------------5----------|
-2-----2-2-----------|--------3-3---------2-2----------------------3----------|
 Breaking the cast..    ...not written, that's all just fiction...no..

Pre-Chorus:
----------------------|------------------------|----------0-------------------|
----------------------|-3/5\3------------------|----------2-------------------|
----------4--3--------|-------2/3\2--0/2\0-----|------------------------------|
----2--4--------5--4--|--------------------3---|-------4----------------------|
-4--------------------|------------------------|----4-------------------------|
----------------------|------------------------|-2----------------------------|
 Who says it's written in stone?......          Alternate gtr part

Chorus:
-------------------------------|-7---7---7---7--------------------------------|
-------------------------------|-7---7---7---7--------------------------------|
---------7---7---7---7---------|-7---7---7---7--------------------------------|
---------7---7---7---7---------|-9---9---9---9--------------------------------|
---------5---5---5---5---------|-9---9---9---9--------------------------------|
-------------------------------|-7---7---7---7--------------------------------|
Too much too fast....            I tumbled to you  ......

------------------|-----------------|-----------------------------------------|
------------------|-----------------|-----------------------------------------|
------------------|-----------------|-----------------------------------------|
--5---5---5---5---|-----------------|----7---7---7---7---------4--------------|
--5---5---5---5---|-----------------|----7---7---7---7---------4--------------|
--3---3---3---3---|-----------------|----5---5---5---5---------2--------------|
  Cause that's just no way to live    I got so much love to give...


This is the cool part when Nick's voice goes all high

-----------------------------------------------------------5------------------|
-----------------------------------------------------------7------------------|
-----------------------------------------------------------6------------------|
-----------------------------------------------------------5------------------|
-----------------------------------------------------------5------------------|
-----------------------------------------------------------5------------------|
                                                      ...Tooooooooo-oooo.....
Tap to rate this tab
# A B C D E F G H I J K L M N O P Q R S T U V W X Y Z