Song name
# A B C D E F G H I J K L M N O P Q R S T U V W X Y Z

311 - Too Much Too Fast tab

Author/Artist: 311
Title: Too Much Too Fast
Album: Uplifter
tabbed by jjhand

Please Comment or rate this great song by 311. Good dual guitar work here.
This has an eighth note swing so every other note is slightly shorter.


Intro Pt. 1:     
   Rhythm, Play 2x
e|--------------------------|
B|--------------------------|
G|--2--4--4/6---4--6--4--2--|
D|--0-----0-----0-----0-----|
A|--------------------------|
E|--------------------------|
  Guitar 1       




Intro Pt. 2:
  Lead
|------9-----------------|-------10----------------|------9-----------------|
|-8/10-------------------|-10/12-------------------|-8/10-------------------|
|------------------------|-------------------------|------------------------|
|------------------------|-------------------------|------------------------|
|------------------------|-------------------------|------------------------|
|------------------------|-------------------------|------------------------|
|
| Rhythm
|------------------------|-------------------------|------------------------|
|------------------------|-0--5--5\3---3--5--5--0--|------------------------|
|-2--4--4/6---4--6--4----|-------0-----0-----0-----|-2--4--4/6---4--6--4----|
|-0-----0-----0-----0----|-------------------------|-0-----0-----0-----0----|
|------------------------|-------------------------|------------------------|
|------------------------|-------------------------|------------------------|

  Lead
|-7-----|
|-8-----|
|-0-----|
|-------|
|-------|
|-------|
|
| Rhythm
|-2-----|
|-------|
|-0-----|
|-------|
|-------|
|-------|

Verse Part 1 (don't let chords ring, make staccato) - play 2x

 A6                                        Bm
-5----5----5----5---|-5----5----5----5---|-7---7---7---7--|-7---7---7---7--|
-7----7----7----7---|-7----7----7----7---|-7---7---7---7--|-7---7---7---7--|
-6----6----6----6---|-6----6----6----6---|-7---7---7---7--|-7---7---7---7--|
-7----7----7----7---|-7----7----7----7---|-9---9---9---9--|-9---9---9---9--|
--------------------|--------------------|----------------|----------------|
--------------------|--------------------|----------------|----------------|
"Rifling through the pictures of you, I can finally tell they developed well"

"The tale I see, it tells my favorite story       of friction and glory"



Verse Part 2:

       F#m/A
-x--x--9--9--x--x--9--9--|-x--x--9--9--x--9----|-----------------|-----------------|
-x--x--7--7--x--x--7--7--|-x--x--7--7--x--7----|-----------------|-----------------|
-x--x--6--6--x--x--6--6--|-x--x--6--6--x--6----|-----------------|-----------------|
-x--x--7--7--x--x--7--7--|-x--x--7--7--x--7----|-----------------|-----------------|
-------------------------|---------------------|-2-x---x-0-x---x-|-2-x---x-0-x---x-|
-------------------------|---------------------|---x-3-x---x-2-x-|---x-3-x---x-2-x-|
"Breaking the cast of repeating the past Its not written,    that's all just fiction"



End Verse 
  Clean Rhythm      C#dim
|-0---0---0---0---|-0---0---0---0---|-2---2---2---2---|-------------------|
|-2---2---2---2---|-2---2---2---2---|-2---2---2---2---|----------3--------|
|-3---3---3---3---|-3---3---3---3---|-3---3---3---3---|-------3-----------|
|-2---2---2---2---|-2---2---2---2---|-4---4---4---4---|-4--2--------------|
|-----------------|-----------------|-----------------|-------------------|
|-----------------|-----------------|-----------------|-------------------|
|
| Lead w/ Distortion
|-----------------|-----------------|-----------------|-------------------|
|-----------------|-----------------|-----------------|-------------------|
|-6---------------|-----------------|-----------------|-------------------|
|-5-------------5-|---------5--7--5-|-4~--------------|-rest--------------|
|-4----------4----|-4---------------|-----------------|-------------------|
|-----------------|-----------------|-----------------|-------------------|
"Oh,  Who says it's written in stone?"




Play Verse Part 1 Again

Nick : "It's been a long time,   Oh such a long time
Finding my way all back out,   whoa 
Somehow you stood by  beyond when you should die 
I'm amazed at how things have turned out"


Play Verse Part 2 Again

SA : "What is revealed? What is concealed? 
It makes all the difference Say what you will 
We unreeled that human web Just to see how it feels?"





For Pre-Chorus, play Intro Part 1





Chorus (2 guitars, distortion):
|--------------------|--------------------|--------------------|--------------------|
|--------------------|--------------------|--------------------|--------------------|
|--------------------|--------------------|-4--4--4--4----4--4-|-4--4--4--4----4--4-|
|-7--7--7--7----7--7-|-7--7--7--7----7--7-|-4--4--4--4----4--4-|-4--4--4--4----4--4-|
|-5--5--5--5----5--5-|-5--5--5--5----5--5-|-2--2--2--2----2--2-|-2--2--2--2----2--2-|
|-5--5--5--5----5--5-|-5--5--5--5----5--5-|--------------------|--------------------|
"Too much too fast for the moment to last, I tumbled to you while stumbling through

"How do I get my   head up off of the tracks Listening for a train, ah"



|---------------------|---------------------|---------------------|
|---------------------|---------------------|---------------------|
|---------------------|---------------------|---------------------|
|---------------------|---------------------|---------------------|
|-5--5-5--5-5--5-5--5-|-5--5-5--5-5--5-5--5-|-4--4-4--4-4--4-4--4-|
|-3--3-3--3-3--3-3--3-|-3--3-3--3-3--3-3--3-|-2--2-2--2-2--2-2--2-|
         "Cause that's just   no    way   to live"


 One Guitar:               Two Guitars:
------------------------|---------------------|---------------------|
-2h3p2-0h2p0------------|---------------------|---------------------|
-------------3h4p3------|---------------------|---------------------|
-------------------5~---|---------------------|---------------------|
------------------------|-5--5-5--5-5--5-5--5-|-5--5-5--5-5--5-5--5-|
------------------------|-3--3-3--3-3--3-3--3-|-3--3-3--3-3--3-3--3-|
                                         "I got so   much    love to"

  Distorted Rhythm
|---------------------|------------------|---------------|--------------------|
|---------------------|------------------|---------------|--------------------|
|---------------------|------------------|---------------|--------------------|
|---------------------|------------------|-0-------------|-(0)----------------|
|-7--7-7--7-7--7-7--7-|-7----------------|-0-------------|-(0)----------------|
|-5--5-5--5-5--5-5--5-|-5----------------|---------------|--------------------|
|
| Lead Guitar (2 parts)
|---------------------|----------2-------|---------------|-5b7r5--------------|
|---------------------|-------2----------|-2-------------|--------7-----------|
|---------------------|-2--0-------------|-2-------------|-----------7--b9r7--|
|---------------------|------------------|-0-------------|--------------------|
|-7--7-7--7-7--7-7--7-|------------------|---------------|--------------------|
|-5--5-5--5-5--5-5--5-|-clean------------|---------------|-dist on------------|
"Give                  Much too fast, oh"




Play Verse Part 1 Again with Lead:
|---------|---------|---------|-------------|
|---------|---------|---------|-------------|
|-6~------|-(6)-----|-7-------|-7-----7b9r7-|
|---------|---------|---------|-------------|
|---------|---------|---------|-------------| play 2x
|---------|---------|---------|-------------|

"Out of the blue It all comes in view 
You never win If you don't go all in 
The perfect hand can go just as you planned 
I don't understand" 




Play Verse Part 2 Again

"Began right on track, slipped through the cracks 
We were two of a kind Who seemed destined to find 
We unreeled that human web Just to see how it feels"




Play Chorus Again, same lyrics

Lead fill in Chorus at 2:57 changes to:
|-------------7-9-10-12~------|
|-----------7-----------------|
|-------7-9-------------------|
|---7-9-----------------------|
|-9---------------------------|
|-----------------------------|



After chorus ends,



Play Verse Part 1 again with Lead Part (just like 2nd time)


"So much love to give 
Too much too fast 
So much love to give 
Too much too fast 
Got so much love to give 
Too much too fast 
So much love to give 
Too much too fast"



Ending Chord after 4x through Verse Riff with above lyrics:

|-5---------------------------|
|-7---------------------------|
|-6---------------------------|
|-7---------------------------|
|-----------------------------|
|-----------------------------|


key
| /   slide up
| \   slide down
| h   hammer-on
| p   pull-off
| ~   vibrato
| x   Mute note
| b   Bend
| r   release bend
Tap to rate this tab
# A B C D E F G H I J K L M N O P Q R S T U V W X Y Z