Song name
# A B C D E F G H I J K L M N O P Q R S T U V W X Y Z

311 - Feels So Good tab

-------------------------------------------------------------------------------
			     Feels So Good - 311
-------------------------------------------------------------------------------
Tabbed by: Crash 2.0
Email: Crash26821atma@hotmail.com

Tuning: Standard EADGBE

Groovy verse riff
E|--10-x10-x10-x10-x1010-x-10-x10-x10-x10-x1010-x-|
B|--10-x10-x10-x10-x1010-x--8-x-8-x-8-x-8-x-8-8-x-|
G|--10-x10-x10-x10-x1010-x-10-x10-x10-x10-x1010-x-|
D|------------------------------------------------|
A|------------------------------------------------|
E|------------------------------------------------|

    Inbetween 
little   filler
E|--------------|
B|--------------|
G|--------------|
D|--7--5--3--2--|
A|--7--5--3--2--|
E|--5--3--1--0--|

Distortion riff
E|----------------------------------------------------------------------|
B|----------------------------------------------------------------------|
G|----------------------------------------------------------------------|
D|------------------3-----------------5-------------6-------------------|
A|--3h5-3h5-3h5-3h5---3h5-3h5-3h5-3h5---3h5-3h5-3h5---3h5-3h5-3h5-3h5---|
E|--------------------------------------------------------------------3-|

Chorus
E|-------------------------------|  |---------------------|
B|-------------------------------|  |---------------------|
G|-----7--9----------------------|x3|-----7--9------------|
D|--9--7--9--2-2--2---2---2-2-2--|  |--9--7--9--2-2--2--2-|
A|--9--5--7--2-2--2---2---2-2-2--|  |--9--5--7--2-2--2--2-|
E|--7--------0-0--0-3-0-3-0-0-0--|  |--7--------0-0--0--0-|

Breakdown
E|-----------------------|  |--------------|
B|-----------------------|  |--------------|
G|-----------------------|x3|--------------|
D|--xx------xx------xx---|  |--7~~5~~3~~2~~|
A|--xx-5p3--xx-5h3--xx-5-|  |--------------|
E|--xx------xx------xx---|  |--------------|
Tap to rate this tab
 
# A B C D E F G H I J K L M N O P Q R S T U V W X Y Z