Guitaretab - guitar tabs
Song name
# A B C D E F G H I J K L M N O P Q R S T U V W X Y Z

311 - Ill Be Here Awhile tab

-------------------------------------------------------------------------------
			     Iíll Be Here Awhile - 311
-------------------------------------------------------------------------------
Tabbed by: jojobeasty
Tuning: standard

Intro
e|-0--0-0--0--0--2--0-2--3--3--2-0------------------0-0--0--0--2--0-2---------|
B|-1--1-1--1--1--1--1-1--0--0--0-0-3-1-0-----0-1----1-1--1--1--1--1-1---------|
G|-2--2-2--2--2--2--2-2--0--0--0-0-------0h2-----2--2-2--2--2--2--2-2---------|
D|----------------------------------------------------------------------------|
A|----------------------------------------------------------------------------|
E|----------------------------------------------------------------------------|
[ Tab from: http://www.guitaretab.com/numeric/311/28335.html ]
e|--3-----2-----0---------------|
B|----0-----0-----0---3-1---0h1-|
G|------0-----0-----0-----2-----|
D|------------------------------|
A|------------------------------|
E|------------------------------|

Chorus:
      Am     C  C/D    G
I'll be here awhile      Ain't goin' nowhere
      Am     C  C/D    G
I'll be here awhile      Ain't goin' nowhere
      Am     C         G
I'll be here awhile      Ain't goin' nowhere
      Am     C  C/D    G
I'll be here awhile      Ain't goin' nowhere

Verse:
B                   Em
Far is solace in the maddening pace
B                   Em
sad state written on my face
    C
not a tight rope walk but dance
    G
uncertain game of chance
C                         G
but I'll see it through in time

Chorus
Verse
Chorus
Verse (probably picked but sounds fine with chords)
Ending (Chorus with the intro in the backgound)

| /  slide up
| \  slide down
| h  hammer-on
| p  pull-off
| ~  vibrato
| +  harmonic
| x  Mute note
===============================================================================
Related for Ill Be Here Awhile tab