Song name
# A B C D E F G H I J K L M N O P Q R S T U V W X Y Z

311 - Something Out Of Nothing tab

311 - 'Something out of Nothing'
From 'Uplifter' Album
Standard tuning, with Distortion
tabbed by jjhand, with help from BRavenFan311's tab



Intro:
e|---------------------|
B|---------------------|
G|---------------------|
D|---4-2-4-------------|  x4
A|---2-0-2-------------|
E|---------2-0-2-0-2---|
     . . . . . . . .    no pm 4th time

Verse:
e|---------------------|
B|---------------------|
G|---------------------|
D|---6-6---6-6-6-6-----|  x8
A|---4-4---4-4-4-4-----|
E|---4-4---4-4-4-4-----|
     .     . . .

e|---------------------------------------|
B|---------------------------------------|
G|---------------------------------------|
D|---9-9---9-9-9-9---9-9-8-8---8-8-8-8---|
A|---7-7---7-7-7-7---7-7-6-6---6-6-6-6---|
E|---7-7---7-7-7-7---7-7-6-6---6-6-6-6---|
     .     . . .     . . .     . . .

e|---------------------|
B|---------------------|
G|---------------------|
D|---6-6---6-6-6-6-----|  x2
A|---4-4---4-4-4-4-----|
E|---4-4---4-4-4-4-----|
     .     . . .

e|---------------------------------------|
B|---------------------------------------|
G|---------------------------------------|
D|---9-9---9-9-9-9---9-9-8-8---8-8-8-8---|
A|---7-7---7-7-7-7---7-7-6-6---6-6-6-6---|
E|---7-7---7-7-7-7---7-7-6-6---6-6-6-6---|
     .     . . .     . . .     . . .

e|---------------------|
B|---------------------|
G|---------------------|
D|---6-6---6-6-6-6-----|  x2
A|---4-4---4-4-4-4-----|
E|---4-4---4-4-4-4-----|
     .     . . .




Pre-Chorus:
e|---------------------------------|---------------------------------|
B|---------------------------------|---------------------------------|
G|---------------------------------|---------------------------------|
D|-9---9-9-9---9-9-9---9-9-9---9-9-|-9---9-9-9---9-9-9---9-9-9---9-9-|
A|-9---9-9-9---9-9-9---9-9-9---9-9-|-7---7-7-7---7-7-7---7-7-7---7-7-|
E|-7---7-7-7---7-7-7---7-7-7---7-7-|-7---7-7-7---7-7-7---7-7-7---7-7-|
       . .     . .     . .     . .       . .     . .     . .     . .

e|---------------------------------|-------------------------------|
B|---------------------------------|-------------------------------|
G|---------------------------------|-------------------------------|
D|-8---8-8-8---8-8-8---8-8-8---8-8-|-6---6-6-6---6-6-6---6-6-6-----|
A|-6---6-6-6---6-6-6---6-6-6---6-6-|-6---6-6-6---6-6-6---6-6-6-----|
E|-6---6-6-6---6-6-6---6-6-6---6-6-|-4---4-4-4---4-4-4---4-4-4-----|
       . .     . .     . .     . .       . .     . .     . .

e|-----------------|----------------|------------|------------|
B|-----------------|----------------|------------|------------|
G|-----------------|----------------|------------|------------|
D|---7-7-7---7-7-7-|--7-7-7---7-7-7-|-4--play----|-4--play----|
A|---5-5-5---5-5-5-|--5-5-5---5-5-5-|-4---x8-----|-4---x8-----|
E|---5-5-5---5-5-5-|--5-5-5---5-5-5-|-2----------|-2----------|
                                      PM 8x        no mutes, louder




For Chorus, Play intro 8x:




Lead Part after 1st Chorus (1:33), with wah

e|--------------------------|---------------------|
B|--------------------------|---------------------|
G|------11b13~~~---11p9-----|---------------------|
D|-9-11----------9-----11p9-|-h11~~~---9h11p9-----|
A|--------------------------|---------------------|
E|--------------------------|---------------------|



Play Verse Again



Lead Wah part during Verse 2

e|--------|--------|--------|---------|---------|---------|----------|
B|--------|--------|--------|---------|-------9-|-8~------|----------|
G|-9~-----|-8~-----|--------|---------|-9~------|---------|----------|
D|--------|--------|-11~----|-(11)----|---------|---------|-11-------|
A|--------|--------|--------|---------|---------|---------|----------|
E|--------|--------|--------|---------|---------|---------|----------|



Play Prechorus Again

Play Chorus




Solo Rhythm Guitar Part (2:48)
e|-------------------|      |------------------|
B|-------------------|      |------------------|
G|---9-9---9-9-9-9---|      |------------------|
D|---9-9---9-9-9-9---|      |-6-6---6-6-6-6----| x2
A|---7-7---7-7-7-7---|x2    |-4-4---4-4-4-4----|
E|-------------------|      |-4-4---4-4-4-4----|

e|---------------------------------|-----------------------------|
B|---------------------------------|-----------------------------|
G|---------------------------------|-----------------------------|
D|-9---9-9-9---9-9-9---9-9-9---9-9-|-6---6-6-6---6-6-6---6-6-6---|
A|-9---9-9-9---9-9-9---9-9-9---9-9-|-6---6-6-6---6-6-6---6-6-6---|
E|-7---7-7-7---7-7-7---7-7-7---7-7-|-4---4-4-4---4-4-4---4-4-4---|
PM:    . .     . .     . .     . .       . .     . .     . .

e|-------------|-----------|
B|-------------|-----------|
G|-------------|-----------|
D|--4---play---|---4--play-|
A|--4----x8----|---4---x8--|
E|--2----------|---2-------|
   PM             no mutes, louder





Solo at 2:48

e|------------------|-----------/9\-|------------9-----|
B|-7b9____--9r7-----|---7b9____-----|-12b14____---12-9-|
G|--------------9p6-|-9-------------|------------------|
D|------------------|---------------|------------------|
A|------------------|---------------|------------------|
E|------------------|---------------|------------------|

e|--------------------|-11-12-11-12-11h12p11-----------------------|
B|--------------------|---------------------12-9h10-9h10p9----10---|
G|-9~----11p9-11b13~--|-----------------------------------9-11-----|
D|--------------------|--------------------------------------------|
A|--------------------|--------------------------------------------|
E|--------------------|--------------------------------------------|

e|-------------------------------------|-9tr11-----------------------|
B|-9h10p9-----9------------------------|--------------------9h10h12--|
G|-------11p9--11p9-11p9\8-------------|--------9---8h9h11-----------|
D|-------------------------9-11-9---9--|-----------------------------|
A|--------------------------------9----|-----------------------------|
E|-------------------------------------|-----------------------------|

e|---------------14------16--/21\--|-9PH-9------------------|
B|-14h16-14h16h17----1717----------|-------12-9-------------|
G|---------------------------------|------------11-9--------|
D|---------------------------------|-----------------11-----|
A|---------------------------------|-------------------11p9-|
E|---------------------------------|------------------------|

e|-----------------------------|-11tr12--12h14p12-14-16-17p16p14--16h17/19~-|
B|--------------------12--14~~-|--------------------------------17----------|
G|------------9--11/13---------|--------------------------------------------|
D|-----9--9/11-----------------|--------------------------------------------|
A|-9/11------------------------|--------------------------------------------|
E|-----------------------------|--------------------------------------------|

e|------------------------17-----17-19p17-19p17-19b23r21~~~--|
B|-17-19-21-17-19-21-19-21--19-21----------------------------|
G|-----------------------------------------------------------|
D|-----------------------------------------------------------|
A|-----------------------------------------------------------|
E|-----------------------------------------------------------|



Ending:
e|-------------------|
B|-------------------|
G|-------------------|
D|---6-6---6-6-6-6---| x8
A|---4-4---4-4-4-4---|
E|---4-4---4-4-4-4---|
     . .   . . . .


key
| /   slide up
| \   slide down
| h   hammer-on
| p   pull-off
| ~   vibrato
| .   palm mutes
| x   Mute note
| b   Bend
| tr  trill (alternate between two notes, ex: 7tr9 is 797979)
Tap to rate this tab
# A B C D E F G H I J K L M N O P Q R S T U V W X Y Z