Song name
# A B C D E F G H I J K L M N O P Q R S T U V W X Y Z

311 - Large In The Margin tab

Help us improve GuitareTab! Take a short survey!
   
  Large in the Margin by 311

  Intro, First Verse

 e--------------
 B--------------
 G--------------
 D--------------
 A--3-3/5-5-3-3-
 E--3-3/5-5-3-3-

 Interlude(Trying too hard to reach a higher plain...)

 e------------9------------------------10--------------------
 B-------11-----11------------------12----12-----------12----
 G----------9------9-------------11----------11-----------10-
 D----11-------------11-------12----------------12-----------
 A--9-------------------9--10----------------------10--------
 E-----------------------------------------------------------

 Second Verse

 e--10-10-10-10-10-10-10-10-9-X-9-X-9-
 B--10-10-10-10-10-10-10-10-8-X-8-X-8-
 G------------------------------------
 D------------------------------------
 A------------------------------------
 E------------------------------------

 Pre-chorus

 e--9--9--9-9--9--9--9---9---9-11--11-11-
 B--8--8--8-8--8--8-10--10--10-10--10-10-
 G---------------------------------------
 D---------------------------------------
 A---------------------------------------
 E---------------------------------------
 
 Chorus
 
 e--2-2-2-2-2-2-2-2-2-2-2-2-2-2-2-4-4-4-4-4-4-4-4-4-4-4-4-4-4-4-4-4-4-
 B--3-3-3-3-3-3-3-3-3-3-3-3-3-3-3-3-3-3-3-3-3-3-3-3-3-3-3-3-3-3-3-3-3-
 G--2-2-2-2-2-2-2-2-2-2-2-2-2-2-2-4-4-4-4-4-4-4-4-4-4-4-4-4-4-4-4-4-4-
 D--0-0-0-0-0-0-0-0-0-0-0-0-0-0-0-2-2-2-2-2-2-2-2-2-2-2-2-2-2-2-2-2-2-
 A--------------------------------------------------------------------
 E--------------------------------------------------------------------

 e--10-10-10-10-10-10-10-10-10-10-10-10-10-10-10-10--2-2--2--2---
 B--11-11-11-11-11-11-11-11-11-11-11-11-11-11-11-11--3-3--3--3---
 G--10-10-10-10-10-10-10-10-10-10-10-10-10-10-10-10--2-2--2--2---
 D---0--0--0--0--0--0--0--0--0--0--0--0--0--0--0--0--0-0--0--0---
 A---------------------------------------------------------------
 E---------------------------------------------------------------

 Interlude: Let D chord ring out 

 Third Verse

 e---------------------------------------------------
 B---------------------------------------------------
 G-------------4-4---4---4--------------4-4---4------
 D-------------4-4-X-4-X-4--------------4-4-X-4------
 A--6--6-5-5-5-2-2-X-2-X-2-4-6--6-4-4-4-2-2-X-2--4-6-
 E--4--4-3-3-3-2-2-X-2-X-2-2-4--4-2-2-2-2-2-X-2--2-4-
 
 Ending: Let D chord at end of Chorus ring out.

 That's the whole song. This is the way I've been playing it
 for three years. Hope you enjoy.
 Later.
Related for Large In The Margin tab