Song name
# A B C D E F G H I J K L M N O P Q R S T U V W X Y Z

311 - Demama tab

intro and verse
E----------------------------------------------------------------|
B----------------------------------------------------------------|
G----------------------------------------------------------------|
D---14---14---14---14---------9---9---9---9---------11---11---11-|
A---12---12---12---12---------7---7---7---7---------9----9----9--|
D---12---12---12---12---------7---7---7---7---------9----9----9--|

E-------------------|
B-------------------|
G-------------------|
D---7---7---7---7---|   Repeat 7 times
A---5---5---5---7---|
D---5---5---5---5---|

Chorus

E----------------------|
B----------------------|
G----------------------|
D----------------------|
A---12---7---9---7---5-|
D---12---7---9---7---5-|
Tap to rate this tab
# A B C D E F G H I J K L M N O P Q R S T U V W X Y Z