Guitaretab - guitar tabs
Song name
# A B C D E F G H I J K L M N O P Q R S T U V W X Y Z
Home / 3 / 311 / Dlmd tab

311 - Dlmd tab

311
"DLMD" (Music: Hexum; Lyrics: Hexum/Martinez )
From the album: 311
Tabbed by: Diego "changfoogibperez"(changfoo33@yahoo.com)
Standard tunning low to high (E,A,D,G,B,e)

        Main Riff
---------------------------------
---------------------------------
--4------------------------------
--5-----------5--3--7---------5--
--5-----5-3-0-5--3--7---5-3-0-5--
--3-----------3--1--5---------3--

Transition to the verse
-----------------------------
-----------------------------
-----------------------------
--6--6-6-6-6-6-6-6--5//////--
--8--8-8-8-8-8-8-8--7//////--
--6--6-6-6-6-6-6-6--5//////--

[ Tab from: http://www.guitaretab.com/numeric/311/36.html ]
Verse
--------------------------------------------
--------------------------------------------
--------------------------------------------
-----------------------------------3-3------
--5p3-5p3-x-x-5p3-5p3-x-x-5p3-5p3------3-5--
----------x-x---------x-x-------------------


Second Verse
------------------------------------------
------------------------------------------
------------------------------------------
------------------------------------------
--7-5--------------7-5--------4-4--4-4-4--
------7-6-5---2~-------7-6-5--2-2--2-2-2--


Outro
----------------------------
----------------------------
----------------------------
---4--4-4-4--4--4-4--4-4-4--
---4--4-4-4--4--4-4--4-4-4--
---2--2-2-2--0--2-2--2-2-2--

This at the end of the outro
-----
-----
--7--
--7--
--5--
-----

p = pull off
~ = Vibrato
x = mute
/ = slide up
Related for Dlmd tab