Guitaretab - guitar tabs
Song name
# A B C D E F G H I J K L M N O P Q R S T U V W X Y Z

311 - Freak Out tab

"Freak Out" by: 311

Tabbed by: Chris Gill
Email: CGill1403@aol.com

Tuning: E A D G B e

e|-------------------------------------------------|
B|-------------------------------------------------|
G|-------------------------------------------------|
D|----------------------------------------------5--|
A|--5h7-x-7-7-x-x-7-5-7-x-x-5h7-x-7-7-x-x-7-5-7----|
E|------x-----x-x-------x-x-----x-----x-x----------|

e|----------------------------------------------------|
B|----------------------------------------------------|
G|----------------------------------------------------|
D|----------------------------------------------------|
A|--5h7-x-7-7-x-x-7-5-7-x-x-5h7-x-7-7-x-x-5-7---------|
E|------x-----x-x-------x-x-----x-----x-x------7-6-5--|

e|-------------------------------------------------|
B|-------------------------------------------------|
G|-------------------------------------------------|
D|----------------------------------------------5--|
A|--5h7---7-7---5-7-5-7-----5h7---7-7---5-7-5-7----|
E|-------------------------------------------------|

e|----------------------------------------------------|
B|----------------------------------------------------|
G|----------------------------------------------------|
D|----------------------------------------------------|
A|--5h7---7-7---5-7-5-7-----5h7---7-7-----5-7---------|
E|---------------------------------------------7-6-5--|

e|-------------------------------------------------|
B|-------------------------------------------------|
G|-------------------------------------------------|
D|----------------------------------------------5--|
A|--5h7---7-7---5-7-5-7-----5h7---7-7---5-7-5-7----|
E|-------------------------------------------------|

e|---------------------------------------------|
B|---------------------------------------------|
G|---------------------------------------------|
D|---------------------------------------------|
A|--5h7---7-7---5-7-5-7-----5h7---7-7-----5-7--|
E|---------------------------------------------|

e|--10\\\------------------------------10\\\-----------------------------------|
B|--10\\\------------------------------10\\\-----------------------------------|
G|--10\\\--------------10-10-10--9-10--10\\\--------------10--9-10---10--9-10--|
D|--------------10h12--10-10-10--9-10--------------10-12--10--9-10---10--9-10--|
A|--------10h12---------8--8--8--7--8--------10h12---------8--7--8----8--7--8--| x2
E|-----------------------------------------------------------------------------|

e|-------------------------------------------------|
B|-------------------------------------------------|
G|-------------------------------------------------|
D|----------------------------------------------5--|
A|--5h7---7-7---5-7-5-7-----5h7---7-7---5-7-5-7----|
E|-------------------------------------------------|

e|----------------------------------------------------|
B|----------------------------------------------------|
G|----------------------------------------------------|
D|----------------------------------------------------|
A|--5h7---7-7---5-7-5-7-----5h7---7-7-----5-7---------|
E|---------------------------------------------7-6-5--|

e|-------------------------------------------------|
B|-------------------------------------------------|
G|-------------------------------------------------|
D|----------------------------------------------5--|
A|--5h7---7-7---5-7-5-7-----5h7---7-7---5-7-5-7----|
E|-------------------------------------------------|

e|--------------------------------------------------|
B|--------------------------------------------------|
G|--------------------------------------------------|
D|--2-2-2-5--2-5-7---2-2-2-5--2-5-7--2-2-2-5--2-5-7-|
A|--0-0-0-3--0-3-5---0-0-0-3--0-3-5--0-0-0-3--0-3-5-|
E|--------------------------------------------------|
[ Tab from: http://www.guitaretab.com/numeric/311/41.html ]
e|--10\\\------------------------------10\\\-----------------------------------|
B|--10\\\------------------------------10\\\-----------------------------------|
G|--10\\\--------------10-10-10--9-10--10\\\--------------10--9-10---10--9-10--|
D|--------------10h12--10-10-10--9-10--------------10-12--10--9-10---10--9-10--|
A|--------10h12---------8--8--8--7--8--------10h12---------8--7--8----8--7--8--|
E|-----------------------------------------------------------------------------|

e|--0--0-----0--0-----2---0---0--|
B|--0--0-----2--2-----3---2---0--|
G|--1--1-----2--2-----2---2---1--|
D|--2--2-----2--2-----0---2---2--| x3
A|--2--2-----0--0---------0---2--|
E|--0--0----------------------0--|

e|-------------------------------------------------|
B|-------------------------------------------------|
G|-------------------------------------------------|
D|----------------------------------------------5--|
A|--5h7---7-7---5-7-5-7-----5h7---7-7---5-7-5-7----|
E|-------------------------------------------------|

e|---------------------------------------------|
B|---------------------------------------------|
G|---------------------------------------------|
D|---------------------------------------------|
A|--5h7---7-7---5-7-5-7-----5h7---7-7-----5-7--|
E|---------------------------------------------|

e|--10\\\------------------------------10\\\-----------------------------------|
B|--10\\\------------------------------10\\\-----------------------------------|
G|--10\\\--------------10-10-10--9-10--10\\\--------------10--9-10---10--9-10--|
D|--------------10h12--10-10-10--9-10--------------10-12--10--9-10---10--9-10--|
A|--------10h12---------8--8--8--7--8--------10h12---------8--7--8----8--7--8--|
E|-----------------------------------------------------------------------------|

e|--------------------------------------------------|
B|--------------------------------------------------|
G|--------------------------------------------------|
D|--2-2-2-5--2-5-7---2-2-2-5--2-5-7--2-2-2-5--2-5-7-|
A|--0-0-0-3--0-3-5---0-0-0-3--0-3-5--0-0-0-3--0-3-5-|
E|--------------------------------------------------|

e|-----------------------------------------|
B|-----------------------------------------|
G|-----------------------------------------|
D|--9---9---9---9---7---7---7--------------|
A|--7---7---7---7---5---5---5----5p3---3h5-|
E|-----------------------------------5-----|

e|--------------------------------------------------|
B|--------------------------------------------------|
G|--------------------------------------------------|
D|--2-2-2-5--2-5-7---2-2-2-5--2-5-7--2-2-2-5--2-5-7-|
A|--0-0-0-3--0-3-5---0-0-0-3--0-3-5--0-0-0-3--0-3-5-|
E|--------------------------------------------------|

e|------------------------------------------|
B|------------------------------------------|
G|------------------------------------------|
D|--2-2-2-2--5\\----2-2-2-2--5\\------------|
A|--0-0-0-0--3\\----0-0-0-0--3\\---2--5--6--| x2
E|---------------------------------0--3--4--|

e|---------------------------------------------------------------|
B|---------------------------------------------------------------|
G|---------------------------------------------------------14\\--|
D|--2-2-2-2-2-2-2-2-2-2-2-2-2-2-2-2-2-2-2-2-2-2-2-2-2------14\\--|
A|--00-0-0-0-0-0-0-0-0-0-0-0-0-0-0-0-0-0-0-0-0-0-0-0-0-0--12\\--|
E|---------------------------------------------------------------|

e|--0--0-----0--0-----2---0---0--|
B|--0--0-----2--2-----3---2---0--|
G|--1--1-----2--2-----2---2---1--|
D|--2--2-----2--2-----0---2---2--|
A|--2--2-----0--0---------0---2--|
E|--0--0----------------------0--|

e|--0--------0--------2---0---0--|
B|--0--------2--------3---2---0--|
G|--1--------2--------2---2---1--|
D|--2--------2--------0---2---2--|
A|--2--------0------------0---2--|
E|--0-------------------------0--|

e|--0--0-----0--0-----2---0--|
B|--0--0-----2--2-----3---2--|
G|--1--1-----2--2-----2---2--|
D|--2--2-----2--2-----0---2--|
A|--2--2-----0--0---------0--|
E|--0--0---------------------|

e|--------------------------|
B|--------------------------|
G|--------------------------|
D|--------------------------|
A|-----------2--5--2--------| x5
E|--0--3--4-----------3--2--|

e|----------------------------|
B|----------------------------|
G|----------------------------|
D|-------------------------2--|
A|-----------2--5--2-------2--|
E|--0--3--4-----------3--2-0--|

| /  slide up
| \  slide down
| h  hammer-on
| p  pull-off
| ~  vibrato
| +  harmonic
| x  Mute note
===============================================================================
Related for Freak Out tab