Song name
# A B C D E F G H I J K L M N O P Q R S T U V W X Y Z

311 - Wake Your Mind Up tab

Wake your mind up
performed by 311
music by hexum,p-nut,chad,miT,sa,
from the album "From Chaos"
tuning:(EADGBe)

I saw that the others versions were wrong and had low ratings
so here you go.
=========================
Riff 1:
=======
   N.C.
e:----------|
B:----------|
G:----------|
D:----------|
A:-4----4-4-|
E:---4------|

Riff 2:
=======
   C#5         G#5   B5        A5
e:---------------------------------------------|
B:---------------------------------------------|
G:---------------------------------------------|
D:---------------------------------------------|
A:-4-4-4-4-4-----------------------------------|
E:-------------4-4---7-7-7-7---5---5-5-5-5-5-5-|
:might be power chords

Riff 3:
=======
   N.C.
e:------------------------------------|
B:------------------------------------|
G:------------------------------------|
D:------------------------------------|
A:--------------2h3p2---2-2-------3-2-|
E:-2--2-2-2-3-5-------5-----5-5-5-----|

Riff 4:
=======
   N.C.
e:--------------------------------------------|
B:--------------------------------------------|
G:--------------------------------------------|
D:----------------------------------------0h2-|
A:-------------2h3p2p0--2-0-2-0-3-2-0-2-0-----|
E:-2--2-2-3-5---------------------------------|

Riff 5:
=======
   N.C.
e:---------------------|
B:---------------------|
G:---------------------|
D:-----------------0h2-|
A:-0-2-0-3-2-0-2-0-----|
E:---------------------|

Bridge:
=======
   E               E7sus4  E
e:-------------------------------|
B:-------------------------------|
G:-1-1-1---1-1-1---2-2-2---1-1-1-|
D:-2-2-2---2-2-2---0-0-0---2-2-2-|
A:-2-2-2---2-2-2---2-2-2---2-2-2-|
E:-0-0-0---0-0-0---0-0-0---0-0-0-|

Riff 6:
=======
   N.C
e:-----------------------------------------------------|
B:-----------------------------------------------------|
G:-----------------------------------------------------|
D:-2h3p2---2------------------2h3p2---2----------------|
A:-------3---3-2--2-3---------------3---3-2-2----2-----|
E:--------------------3-2-0--------------------3---3-2-|

Solo:
=====
i'll post it later as a solo when i figure it
out it's gonna take a while.

Ending:
=======
   C#5 G#5 C#5
e:-----------------|
B:-----------------|
G:-----------------|
D:-(6)-----(6)-(6)-|
A:--4--(6)--4---4--|
E:------4----------|
Tap to rate this tab
# A B C D E F G H I J K L M N O P Q R S T U V W X Y Z