Guitaretab - guitar tabs
Song name
# A B C D E F G H I J K L M N O P Q R S T U V W X Y Z

311 - What Was I Thinking tab

311
what was i thinking

heres the guitar for it

for that "rising" intro noise heres what i do:
turn the volume down to 0, then play this
e|-------|
B|-------|
G|-------|
D|-(12)~-|
A|-(12)~-|  (12) meaning 12th fret harmonics
E|-(12)~-|   and ~ meaning let them ring
after that just turn up the volume

e|---------------------|
B|---------------------|
G|---------------------|
D|-2-2-2-2-2-2-2-2--22-|
A|-2-2-2-2-2-2-2-2--22-|
E|-0-0-0-0-0-0-0-0--00-|
note: use downstrokes then upstrokes for the first 8,
then bairly tap the last 2 with a downstroke
[ Tab from: http://www.guitaretab.com/numeric/311/45684.html ]
verse:
e|-----------------|
B|-----------------|
G|-----------------|
D|-3-2-x-3-2-x-x-x-|
A|-3-2-x-3-2-x-x-x-|
E|-1-0-x-1-0-x-x-x-|


for the chorus/what was i thinking part, do really fast mutes on all strings and occasionlly hit this chord
e|---|
B|---|
G|---|
D|-4-|
A|-4-|
E|-2-| u will have to get the timing for exactly when to hit it

and the bridge/outro goes like this
e|---------------------------------|
B|---------------------------------|
G|---------------------------------|
D|---------------------------------|
A|--------5h7-------5h7-------5h7--|
E|-0h5h7p5---0h5h7p5---0h5h7p5---0-|

the end.
Related for What Was I Thinking tab
Advertisement will be closed in 10 seconds