Song name
# A B C D E F G H I J K L M N O P Q R S T U V W X Y Z

311 - Inner Light Spectrum tab

Help us improve GuitareTab! Take a short survey!
-------------------------------------------------------------------------------
Inner Light Spectrum SOLO Tab by 311, www.Ultimate-Guitar.Com
-------------------------------------------------------------------------------
Tabbed by: will
Email: djefx4@yahoo.com

Tuning: Standard

Not sure if this is right but it sounds pretty darn close, if ya got beef, eat it, or 
me with your thoughts along with insight & improvements.

e|--------------------------------------------------------------------------|
B|-----------------------7-------7------------8h-9-9--8---------------------|
G|--------6-8-8-----6-8-----6-8-----8-8-6-6-------------8---6-8-------------|
D|----6-8---------------------------------------------------------6-8-8-----|
A|--6-----------------------------------------------------------------------|
E|--------------------------------------------------------------------------|

e|-----------------------------4--------------------------------------------|
B|-----------------------------6--------------------------------------------|
G|-----------------------------6--------------------------------------------|
D|--5---5-6--8-8----5-6-8---------------------------------------------------|
A|----6-----------6---------------------------------------------------------|
E|--------------------------------------------------------------------------|
                               ^ not sure if that's the final chord, could be some sweet 
with a different chord.
              Enjoy, and figure out the rhythm, it's not that hard.
Related for Inner Light Spectrum tab