Guitaretab - guitar tabs
Song name
# A B C D E F G H I J K L M N O P Q R S T U V W X Y Z

311 - Misdirected Hostility tab

311
Misdirected Hostility

Intro
E|------------------------------------------------------------|
B|-7-5--------------------5---------7-5-----------------------|
G|-----7--5-5h7h5-----5-7---7-5-7-------7--5-5h7h5---5--------|
D|----------------7--------------------------------7---7-5-4--|
A|------------------------------------------------------------|
D|------------------------------------------------------------|

Part 1
E|----------/-----------------------------------------|
B|----------/-----------------------------------------|
G|-7-----5--/-7--7s2----------------------------------|
D|-7---7-5--/-7--7s2----------------------------------|
A|-5---7-3--/-5-5s0----------------------------------|
D|-----7----/-----------------------------------------|
[ Tab from: http://www.guitaretab.com/numeric/311/45695.html ]
Part 2
E|----------------------------------------------------|
B|----------------------------------------------------|
G|----------------------------------------------------|
D|-8-x-8--5-8-10-8------------------------------------|
A|-8-x-8--5-8-10-8------------------------------------|
D|-8-x-8--5-8-10-8------------------------------------|

Part 1

Part 3
E|----------------------------------------------------|
B|----------------------------------------------------|
G|------------------5-4-5-6-5-4-5-/-5-4-5--5-4-5------|
D|-2-3-2--2-2-11s0--5-4-5-6-5-4-5-/-5-4-5--5-4-5------|
A|-2-3-2--2-2-11s0--3-2-3-4-3-2-3-/-3-2-3--3-2-3------|
D|-2-3-2--2-2-11s0------------------------------------|
         (pm)
Part 1
Part 2
Part 1

Part 4 
E|----------------------------------------------------|
B|----------------------------------------------------|
G|----------------------------------------------------|
D|-3-3-3-3-3--3-3-3-3-3-3-3---------------------------|
A|-3-3-3-3-3--3-3-3-3-3-3-3---------------------------|
D|-3-3-3-3-3--3-3-3-3-3-3-3---------------------------|

Part 1
Part 2
Part 1
Part 3

This isn't 100% correct, but pretty close, 
so use it as a base and correct it however you want...
Related for Misdirected Hostility tab