Song name
# A B C D E F G H I J K L M N O P Q R S T U V W X Y Z

311 - Nix Hex tab

Riff 1:
=======
   N.C.
e:-----------------------------------------------------|
B:-----------------------------------------------------|
G:-5p3---3p0-------------------3-----------------------|
D:-----5-----5-5-0-3-5-0-5p3p0----5p3-0-3-5-0-5p3p0----|
A:--------------------------------------------------3/1|
E:-----------------------------------------------------|

   N.C.
e:-----------------------------------------------|
B:-----------------------------------------------|
G:-------------------3-------------3-5-3---------|
D:-5p3-0-3-5p005p3-0---5p3-0-3-5-----------3-5-3-|
A:-----------------------------------------------|
E:-----------------------------------------------|

   N.C.
e:------------------------------------------|
B:------------------------------------------|
G:-------------------3----------------------|
D:-5p3-0-3-5p005p3-0---5p3-0-3-5p005p3p0----|
A:---------------------------------------3/1|
E:------------------------------------------|

   N.C.
e:-----------------------------------------------|
B:-----------------------------------------------|
G:-------------------3-------------5-3-----3-----|
D:-5p3-0-3-5p005p3-0---5p3-0-3-5-------5-----5-3-|
A:-----------------------------------------------|
E:-----------------------------------------------|

   N.C.
e:------------------------------------------|
B:------------------------------------------|
G:-------------------3----------------------|
D:-5p3-0-3-5p005p3-0---5p3-0-3-5p005p3p0----|
A:---------------------------------------3/1|
E:------------------------------------------|

   N.C.
e:-----------------------------------------------|
B:-----------------------------------------------|
G:-------------------3-------------3-5-3---------|
D:-5p3-0-3-5p005p3-0---5p3-0-3-5-----------5-5-5-|
A:-----------------------------------------------|
E:-----------------------------------------------|


1:-7-7--5-|
2:-7-7--5-|
3:-7-7--5-|
4:--------|
5:--------|
6:--------|

   N.C.
e:------------------------------------------|
B:------------------------------------------|
G:-------------------3----------------------|
D:-5p3-0-3-5p005p3-0---5p3-0-3-5p005p3p0----|
A:---------------------------------------3/1|
E:------------------------------------------|

   N.C.
e:-------------------------------------------|
B:-------------------------------------------|
G:-------------------3-------------3-3-3-3--3|
D:-5p3-0-3-5p005p3-0---5p3-0-3-5-------------|
A:-------------------------------------------|
E:-------------------------------------------|

   N.C.
1:-----------------------------------------|
2:-----------------------------------------|
3:-----------------------------------------|
4:-----------------------------------------|
5:-----------------1-------------1-3-3-1---|
6:-1-3-1-3-1-3-1-3---1-3-1-3-1-3-----------|

   N.C.
1:-----------------------------------------|
2:-----------------------------------------|
3:-----------------------------------------|
4:-----------------------------------------|
5:-----------------1-------------1-3b-3-1--|
6:-1-3-1-3-1-3-1-3---1-3-1-3-1-3-----------|

1:-7-7--5*|
2:-7-7--5*|
3:-7-7--5*|
4:--------|
5:--------|
6:--------|

1:-3*---3-3-3*---|
2:-3*---3-3-3*---|
3:-3*---3-3-3*---|
4:---------------|
5:---------------|
6:---------------|
*let ring

   N.C.
e:------------------------------------------|
B:------------------------------------------|
G:-------------------3----------------------|
D:-5p3-0-3-5p005p3-0---5p3-0-3-5p005p3p0----|
A:---------------------------------------3/1|
E:------------------------------------------|

   N.C.
e:-----------------------------------------------|
B:-----------------------------------------------|
G:-------------------3-------------5p3---3-------|
D:-5p3-0-3-5p005p3-0---5p3-0-3-5-------5---5-3---|
A:---------------------------------------------5-|
E:-----------------------------------------------|


Solo:
=====
   N.C.
1:---------------------------------------------------------------------------|
2:-12h13p12-------------12h13p12-------------12-13-15-13-12-12-13-15-13-12---|
3:----------14-12-12-14----------14-12-12-14---------------------------------|
4:---------------------------------------------------------------------------|
5:---------------------------------------------------------------------------|
6:---------------------------------------------------------------------------|

   N.C.                                     Bb5
1:------------------------------------------15-15-15-15-15-15-15-15-15-15----|
2:-13-------------12-------12-13-12----12b-----------------------------------|
3:----14-14-14-14----14-14----------14---------------------------------------|
4:---------------------------------------------------------------------------|
5:---------------------------------------------------------------------------|
6:---------------------------------------------------------------------------|

   Bb5              N.C.
1:-15-15-15-15-15------------------12---------17-15-15/17-|
2:------------------15-13-15b---13----13------------------|
3:---------------------------------------14---------------|
4:--------------------------------------------------------|
5:--------------------------------------------------------|
6:--------------------------------------------------------|

Ending:
1:-3--3--5--5-|
2:-3--3--5--5-|
3:-4--4--6--6-|
4:------------|
5:------------|
6:------------|
Tap to rate this tab
 
# A B C D E F G H I J K L M N O P Q R S T U V W X Y Z