Song name
# A B C D E F G H I J K L M N O P Q R S T U V W X Y Z

311 - Same Mistake Twice tab

Help us improve GuitareTab! Take a short survey!
"Same Mistake Twice"
311

Standard Tuning: EADGBe

Chorus:
|-------------------------------
|-------------------------------
|-------------------------------
|-3-3-3-3--6-6----5----5-3-6-5--
|-3-3-3-3--6-6----3----3-1-6-5--
|-1-1-1-1--4-4----3----3-1-4-3--

Verse: ( X is on the 3rd fret)
|--------
|--------
|--------
|-2------    -does that 17 times
|-2------   
|-0-XXX—

Next part verse: ( X is on the 3rd fret)
|-------------------------------------------------------------------
|-------------------------------------------------------------------
|-------------------------------------------------------------------
|-2-3-4-5-----5-----5-----5-4-3-2-----2-----2-----2-3-4-5-----5-----
|-2-3-4-5-----5-----5-----5-4-3-2-----2-----2-----2-3-4-5-----5-----
|-0-1-2-3-XXX-3-XXX-3-XXX-3-2-1-0-XXX-0-XXX-0-XXX-0-1-2-3-XXX-3-XXX-

|----------------------
|----------------------
|----------------------
|-5-----5---4---5---4--
|-5-----5---2---3---4--
|-3-XXX-3---2---3---2—

Slower/Spacy Part: (All of your life….)   Hold each note
|---------------------------------------------------------------------
|---------------------------------------------------------------------
|---------------------------------------------------------------------
|-5---2---3---3---5---2---3---3---2-----2-----2-----2-----2-----2-----
|-3---0---1---3---3---0---1---3---2-XXX-2-XXX-2-XXX-2-XXX-0-XXX-0-XXX-
|-3---0---1---1---3---0---1---1---0-XXX-0-XXX-0-XXX-0-XXX-0-XXX-0-XXX-

|---------------------------------------------------------------------
|---------------------------------------------------------------------
|---------------------------------------------------------------------
|-2-----2-----2-----2-----2-----2-----2-2-3-3-4-4-5-------------------
|-0-XXX-0-XXX-2-XXX-2-XXX-2-XXX-2-XXX-0-0-1-1-2-2-3-------------------
|-0-XXX-0-XXX-0-XXX-0-XXX-0-XXX-0-XXX-0-0-1-1-2-2-3-------------------
Related for Same Mistake Twice tab