Song name
# A B C D E F G H I J K L M N O P Q R S T U V W X Y Z

311 - First Straw tab

-------------------------------------------------------------------------
-------------------------  FIRST STRAW - 311 ----------------------------
-------------------------------------------------------------------------

Tabbed by: Sean

Tuning: Standard

I made the last tab for this song before i was a member and then i noticed some
mistakes and decided to add the bridge.


 
Main Riff (Palm Muted)

e|-------------------------------------------------------------|
B|-------------------------------------------------------------|
G|-------------------------------------------------------------|
D|---------------------------------2------0--0--4-4-4-4--------|
A|---------2-------2--2--2---3-3-3----3-3----------------------|
E|---3-3-3----3-3----------------------------------------------|

Bridge (Distorted)

e|-------------------------------------------------------------|
B|-------------------------------------------------------------|
G|-------------------------------------------------------------|
D|---9-9-9-9-9--12-12-12-12-12--7-7-7-7-7--5-5--3-3------------|
A|---9-9-9-9-9--12-12-12-12-12--7-7-7-7-7--5-5--3-3------------|
E|---7-7-7-7-7--10-10-10-10-10--5-5-5-5-5--3-3--1-1------------|

e|-------------------------------------------------------------|
B|-------------------------------------------------------------|
G|-------------------------------------------------------------|
D|---9-9-9-9-9--12-12-12-12-12--7-7-7-7-7--9--5--6--7-7-7-7-7--|
A|---9-9-9-9-9--12-12-12-12-12--7-7-7-7-7--9--5--6--7-7-7-7-7--|
E|---7-7-7-7-7--10-10-10-10-10--5-5-5-5-5--7--3--4--5-5-5-5-5--|
Tap to rate this tab
 
# A B C D E F G H I J K L M N O P Q R S T U V W X Y Z