Song name
# A B C D E F G H I J K L M N O P Q R S T U V W X Y Z

311 - How Do You Feel tab

tuning: standard

intro: clean
e:--------------------------------------------------------------------------|
B:--------------------------------------------------------------------------|
G:--------------------------------------------------------------------------|
D:-2-4-2---4-4-----2-4-2---4-4-----2-4-2---4-4-----2-4-2---4-4--------------|
A:--------------------------------------------------------------------------|
E:--------------------------------------------------------------------------|

verse: dist.
e:--------------------------------------------------------------------------|
B:--------------------------------------------------------------------------|
G:--------------------------------------------------------------------------|
D:-2-4-2---4-4-----2-4-2---4-4-----2-4-2---4-4-----2-4-2---4-4--------------|
A:-------4---------------4---------------4---------------4------------------|
E:--------------------------------------------------------------------------|

pre-chorus: dist.(3times)             4th time
e:--------------------------|---------------------------------------------|
B:--------------------------|---------------------------------------------|
G:-----------------7-7-7----|---------------------------------------------|
D:-5-5-5---8-8-8---7-7-7----|-5-5-5---8-8-8---7-7-7---5-------------------|
A:-5-5-5---8-8-8---5-5-5----|-5-5-5---8-8-8---7-7-7---3-------------------|
E:-3-3-3---6-6-6---5-5-5----|-3-3-3---6-6-6---5-5-5---3-------------------|

chorus: heavy dist./palm mute
e:--------------------------------------------------------------------------|
B:--------------------------------------------------------------------------|
G:-----------------------------------4-4-4-4-4-4-4-4------------------------|
D:-4-4-4-4-4-4-4-4--2-2-2-2-2-2-2-2--4-4-4-4-4-4-4-4--2-2-2-2-2-2-2-2-------|
A:-4-4-4-4-4-4-4-4--2-2-2-2-2-2-2-2--2-2-2-2-2-2-2-2--2-2-2-2-2-2-2-2-------|
E:-2-2-2-2-2-2-2-2--0-0-0-0-0-0-0-0--2-2-2-2-2-2-2-2--0-0-0-0-0-0-0-0-------|

fill/outro
e:--------------------------------------------------------------------------|
B:--------------------------------------------------------------------------|
G:--------------------------------------------------------------------------|
D:---b4b---b4b---b4b---b4b--------------------------------------------------|
A:---b4b---b4b---b4b---b4b--------------------------------------------------|
E:---b2b---b2b---b2b---b2b--------------------------------------------------|

bridge
e:--------------------------------------------------------------------------|
B:--------------------------------------------------------------------------|
G:---------------5h7------------------5---------------5h7-b7b-5-------------|
D:-7--7-7-7--5h7------7--7-7-7--5-5-7----7--7-7-7--5h7----------------------|
A:-5--5-5-5-----------5--5-5-5-----------5--5-5-5---------------------------|
E:-5--5-5-5-----------5--5-5-5-----------5--5-5-5---------------------------|

e:-------------------------------|
B:-------------------------------|
G:-------------------------------|
D:-7--7-7-7---7-7--6--5----------|
A:-5--5-5-5---7-7--6--5----------|
E:-5--5-5-5---5-5--4--3----------|

thats my first tab, and i hope it brings you as much joy as it has brought me.
Tap to rate this tab
# A B C D E F G H I J K L M N O P Q R S T U V W X Y Z