Guitaretab - guitar tabs
Song name
# A B C D E F G H I J K L M N O P Q R S T U V W X Y Z
Home / 3 / 311 / Unity tab

311 - Unity tab

-----------------------------------------------------------------------------
			        UNITY
-----------------------------------------------------------------------------

By: BenihanaPuNK
-Standard tuning

Intro/Verse
-----------------------------------------------------------------------------|
-----------------------------------------------------------------------------|
-----------------------------------------------------------------------------|
-----------------------------------------------------------------------------|
---------------------------12-10-------------------------------------3---5---|
--88--75---88--75-----55---10--8------------88--75---88--75-----33---1---3---|
[ Tab from: http://www.guitaretab.com/numeric/311/55.html ]
Verse 2
-----------------------------------------------------------------------------|
-----------------------------------------------------------------------------|
-----------------------------------------------------------------------------|
-----------------------------------------------------------------------------|
--7-7--5--7---7-7---12-10-----7-7--5--7---7-7---3--5-------3--5--------------|
--5-5--3--5---5-5---10--8-----5-5--3--5---5-5---1--3-------1--3--------------|

Chorus
----------------------------------------------|
----------------------------------------------|
----------------------------------------------|
----------------------------------------------|
----------------------------------------------|
---0000--7777--4444--5555---------------------|

Riff A
---------------------------------------------|
---------------------------------------------|
---------------------------------------------|
---2222--------------------------------------|
---2222--5555--6666--7777--------------------|
---0000--7777--4444--5555--------------------|

Riff B
---------------------------------------------|
---------------------------------------------|
---------------------------------------------|
----------7----------------------------------|  2x
----5-----5---5----------3--5--3---3---------|
----3---------3-----3-5------------5---------|
Related for Unity tab