Guitaretab - guitar tabs
Song name
# A B C D E F G H I J K L M N O P Q R S T U V W X Y Z

311 - Take My Money tab

"Take My Money" by: 311

Tabbed by: Chris Gill (CGill1403@aol.com)

Music By: Nick Hexum, Tim Mahoney, Chad Sexton, Aaron Wills
Lyrics By: Nick Hexum, Doug Martinez

Itís a shame that this song didnít make it onto their newest album ďDonít Tread On MeĒ. 
 I will be willing to share it with anyone who wants it, so if you do just hit me up on
AIM.


Tuning: E A D G B e


e|----------------------------------------------------------------|
B|----------------------------------------------------------------|
G|----------------------------------------------------------------|
D|--2--2--x--5--x--7--7------------2--2--x--5--x--7--7------------|    x4
A|--2--2--x--5--x--7--7------------2--2--x--5--x--7--7------------|
E|--0--0--x--3--x--5--5--6*6*6*6*--0--0--x--3--x--5--5--6*6*6*6*--|


Iím jumpin off a cliff into the milky way
Throw caution to the wind, by what Iím gonna say
I slipped into a song, the song I speak about you
A song bomb to see its overdue
(Tim does a very light pick slide on the D string during this verse)


So jump right in just swear it is your bidding
I just wanna get in to this carpet ride
Weíre on a carpet and nothing can stop it
Hang on and drop it, I gotta let it glide
e|--x-x-5--7-7----7-x-x-x-5--5--x-x-5--7-7----7-x-x-x-5--5--|
B|--x-x-5--7-7----7-x-x-x-5--5--x-x-5--7-7----7-x-x-x-5--5--|
G|----------------------------------------------------------|
D|----------------------------------------------------------|   x2
A|----------------------------------------------------------|
E|----------------------------------------------------------|


e|----------------------------------------------------------------|
B|----------------------------------------------------------------|
G|----------------------------------------------------------------|
D|--2--2--x--5--x--7--7------------2--2--x--5--x--7--7------------|    x2
A|--2--2--x--5--x--7--7------------2--2--x--5--x--7--7------------|
E|--0--0--x--3--x--5--5--6*6*6*6*--0--0--x--3--x--5--5--6*6*6*6*--|


Come on baby, take my money
Let me help you make it past
Those days that are not quite yet sunny
But one day will be at last
Yea take that
e|-------------------------------------------------------------|
B|-------------------------------------------------------------|
G|-------------------------------------------------------------|
D|--9--9--x-7--x--4--x--7--x--9--x-x-9--7-7-x-x-4--x--7--x--9--|    x4
A|--9--9--x-7--x--4--x--7--x--9--x-x-9--7-7-x-x-4--x--7--x--9--|
E|--7--7--x-5--x--2--x--5--x--7--x-x-7--5-5-x-x-2--x--5--x--7--|


I wanna borrow some time with real meaning
And then spend our twilights less gleaming
Just probing the fields of relativity
A grant wondering, between you and me
e|-------------------------------------------------------------------------|
B|--9--9---7--9-----7-9--7-7--7-9----9--7--9--7--9----7-9--7-7--7-9-----7--|
G|---------------9----------------9----------------9-----------------9-----|
D|-------------------------------------------------------------------------| 
A|-------------------------------------------------------------------------|
E|-------------------------------------------------------------------------|
PM..........................................................................

[ Tab from: http://www.guitaretab.com/numeric/311/59807.html ]
I wanna borrow some time with real meaning
And then spend our twilights less gleaming
Just probing the fields of relativity
A grant wondering, between you and me
e|---------------------------------------------------------------------|
B|--9--9---7--9------9--9---7--9------9--9---7--9------9--9---7--9-----|
G|---------------9----------------9----------------9----------------9--|
D|---------------------------------------------------------------------|
A|---------------------------------------------------------------------|
E|---------------------------------------------------------------------|
w/ wah


e|----------------------------------------------------------------|
B|----------------------------------------------------------------|
G|----------------------------------------------------------------|
D|--2--2--x--5--x--7--7------------2--2--x--5--x--7--7------------|    x2
A|--2--2--x--5--x--7--7------------2--2--x--5--x--7--7------------|
E|--0--0--x--3--x--5--5--6*6*6*6*--0--0--x--3--x--5--5--6*6*6*6*--|


Uncle sam, heíll put out his hand
Youíve got to understand
Heís gonna take some away
Heís got another plan
Heís a tax man wonít say thanks maíam
Even if you bought a mic and say good god damn
Thatís what I said when I first saw you, mmhm
Thatís what I say when I donít know what to do
Tell me, how can I adjust the phonics of you,
Tell me all the little things
e|--x-x-5--7-7---7-x-x-x-5--5-7-x-x-5--7-7---7-x-x-x-5--5-7-|
B|--x-x-5--7-7---7-x-x-x-5--5-7-x-x-5--7-7---7-x-x-x-5--5-7-|
G|----------------------------------------------------------|
D|----------------------------------------------------------|   x2
A|----------------------------------------------------------|
E|----------------------------------------------------------|


Come on baby, take my money
Let me help you make it past
Those days that are not quite yet sunny
But one day will be at last
Yea take that
e|-------------------------------------------------------------|
B|-------------------------------------------------------------|
G|-------------------------------------------------------------|
D|--9--9--x-7--x--4--x--7--x--9--x-x-9--7-7-x-x-4--x--7--x--9--|    x4
A|--9--9--x-7--x--4--x--7--x--9--x-x-9--7-7-x-x-4--x--7--x--9--|
E|--7--7--x-5--x--2--x--5--x--7--x-x-7--5-5-x-x-2--x--5--x--7--|


I wanna borrow some time with real meaning
And then spend our twilights less gleaming
Just probing the fields of relativity
A grant wondering, between you and me
Do you get it girl, grab the money run
Take it off the top, now go have fun
Donít worry about me, Iíll make another song
Youíve got a live one
e|---------------------------------------------------------------------|
B|--9--9---7--9------9--9---7--9------9--9---7--9------9--9---7--9-----|
G|---------------9----------------9----------------9----------------9--|
D|---------------------------------------------------------------------|   x2
A|---------------------------------------------------------------------|
E|---------------------------------------------------------------------|
w/ wah


Come on baby, take my money
Let me help you make it past
Those days that are not quite yet sunny
But one day will be at last
Yea take that
e|-------------------------------------------------------------|
B|-------------------------------------------------------------|
G|-------------------------------------------------------------|
D|--9--9--x-7--x--4--x--7--x--9--x-x-9--7-7-x-x-4--x--7--x--9--|    x4
A|--9--9--x-7--x--4--x--7--x--9--x-x-9--7-7-x-x-4--x--7--x--9--|
E|--7--7--x-5--x--2--x--5--x--7--x-x-7--5-5-x-x-2--x--5--x--7--|


e|--------------------------------------|
B|--------------------------------------|
G|--------------------------------------|
D|--------------------------------------| 
A|--4--x--7--x--9--x--4--x--7--x--9--9--|
E|--2--x--5--x--7--x--2--x--5--x--7--7--|



| /  slide up
| \  slide down
| h  hammer-on
| p  pull-off
| ~  vibrato
| *  harmonic
| x  Mute note
===============================================================================


Related for Take My Money tab