Guitaretab - guitar tabs
Song name
# A B C D E F G H I J K L M N O P Q R S T U V W X Y Z

311 - Omaha Stylee tab

-------------------------------------------------------------------------------
			     OMAHA STYLEE - 311
-------------------------------------------------------------------------------
Tabbed by: Chris Gill
Email: CGill1403@aol.com

Tuning:

INTRO

e|-----------------------------|
B|-----------------------------|
G|-----------------------------|
D|-----------------------------|
A|-----------------------------|
E|----7----8/---3----0----5----|

VERSE

e|----------------------------------------------------------------------------------|
B|----------------------------------------------------------------------------------|
G|----------------------------------------------------------------------------------|
D|----------------------------------------------------------------------------------|
A|--------3--6--5------------3--6--5--3--5--------3--6--5---------3--6--5--3--5--0--|
E|--5--5---------------5--5-----------------5--5---------------5--------------------|

e|---------------------------------------------------|
B|---------------------------------------------------|
G|---------------------------------------------------|
D|---------------------------------------------------|
A|-----0-----0--2--3--2--0-----0-----0--2--3--2---0--|
E|--1-----1-----------------1-----1------------------|

e|-------------------------------------------------------------------------------|
B|-------------------------------------------------------------------------------|
G|-------------------------------------------------------------------------------|
D|-------------------------------------------------------------------------------|
A|-----3--6--5------------3--6--5--3--5--------3--6--5---------3--6--5--3--5--0--|
E|--5---------------5--5-----------------5--5---------------5--------------------|

e|-------------------------------------------------------|
B|-------------------------------------------------------|
G|-------------------------------------------------------|
D|-------------------------------------------------------|
A|-------------------------------------------------------|
E|--5----0----3----0----5----0----3----0----5----0----3--|

e|-------------------------------------------------------------------------------|
B|-------------------------------------------------------------------------------|
G|-------------------------------------------------------------------------------|
D|-------------------------------------------------------------------------------|
A|-----3--6--5------------3--6--5--3--5--------3--6--5---------3--6--5--3--5--0--|
E|--5---------------5--5-----------------5--5---------------5--------------------|

e|---------------------------------------------------|
B|---------------------------------------------------|
G|---------------------------------------------------|
D|---------------------------------------------------|
A|-----0-----0--2--3--2--0-----0-----0--2--3--2---0--|
E|--1-----1-----------------1-----1------------------|

e|-------------------------------------------------------------------------------|
B|-------------------------------------------------------------------------------|
G|-------------------------------------------------------------------------------|
D|-------------------------------------------------------------------------------|
A|-----3--6--5------------3--6--5--3--5--------3--6--5---------3--6--5--3--5--0--|
E|--5---------------5--5-----------------5--5---------------5--------------------|

e|-------------------------------------------------------|
B|-------------------------------------------------------|
G|-------------------------------------------------------|
D|-------------------------------------------------------|
A|-------------------------------------------------------|
E|--5----0----3----0----5----0----3----0----5----0----3--|

e|--------------------------------------------------|
B|--------------------------------------------------|
G|--------------------------------------------------|
D|--------------------------------------------------|
A|--------------------------------------------------|
E|--3--3--3--3--3--3--3--3--3--5--3--5--3--5--3--5--|

e|------------------------------------------------------------------|
B|------------------------------------------------------------------|
G|------------------------------------------------------------------|
D|------------------------------------------------------------------|
A|--3-3-3-------3-3-3---3---3-3-3---------0-3-3-3-3-3---3---3---3---|
E|--------0-1-3-------3---3-------0-1-1-1-------------3---3---3---3-|

e|------------------------------------------------------------------|
B|------------------------------------------------------------------|
G|------------------------------------------------------------------|
D|------------------------------------------------------------------|
A|--3-3-3-------3-3-3---3---3-3-3---------0-3-3-3-3-3---3---3---3---|
E|--------0-1-3-------3---3-------0-1-1-1-------------3---3---3---3-|

e|------------------------------------------------------------------|
B|------------------------------------------------------------------|
G|------------------------------------------------------------------|
D|------------------------------------------------------------------|
A|--3-3-3-------3-3-3---3---3-3-3---------0-3-3-3-3-3---3---3---3---|
E|--------0-1-3-------3---3-------0-1-1-1-------------3---3---3---3-|

e|------------------------------------------------------------------|
B|------------------------------------------------------------------|
G|------------------------------------------------------------------|
D|------------------------------------------------------------------|
A|--3-3-3-------3-3-3---3---3-3-3---------0-3-3-3-3-3---3---3---3---|
E|--------0-1-3-------3---3-------0-1-1-1-------------3---3---3---3-|

CHORUS

e|------------------------------------------------------------|
B|------------------------------------------------------------|
G|------------------------------------------------------------|
D|------------------------------------------------------------|
A|--2----2----2----2----3----4--------------------------------|
E|--0----3----0----3----4----5-----5---3---0---2---3---2---0--|
[ Tab from: http://www.guitaretab.com/numeric/311/60038.html ]
e|--------------------------------------------------------|
B|--------------------------------------------------------|
G|--------------------------------------------------------|
D|--------------------------------------------------------|
A|--2----2----2----2----3----4----------------------------|
E|--0----3----0----3----4----5-----0----3----5----0----5--|

e|------------------------------------------------------------|
B|------------------------------------------------------------|
G|------------------------------------------------------------|
D|------------------------------------------------------------|
A|--2----2----2----2----3----4--------------------------------|
E|--0----3----0----3----4----5-----5---3---0---2---3---2---0--|

e|-------------------------------------------------------|
B|-------------------------------------------------------|
G|-------------------------------------------------------|
D|-------------------------------------------------------|
A|--2----2----2----2----3----4---------------------------|
E|--0----3----0----3----4----5-----5*-5*-4*-4*-3*-2*-1*--|

e|--------------------------------------------------------------------------|
B|--------------------------------------------------------------------------|
G|--------------------------------------------------------------------------|
D|--------------------------------------------------------------------------|
A|--4---4--4--7--7--7--6---6--6---6-6----4---4--4--7--7--7--6---6--6---6-6--|
E|--2---2--2--5--5--5--4---4--4---44----2---2--2--5--5--5--4---4--4---44--|

e|------------------------------------------------------------|
B|------------------------------------------------------------|
G|------------------------------------------------------------|
D|------------------------------------------------------------|
A|--2----2----2----2----3----4--------------------------------|
E|--0----3----0----3----4----5-----5---3---0---2---3---2---0--|

e|--------------------------------------------------------|
B|--------------------------------------------------------|
G|--------------------------------------------------------|
D|--------------------------------------------------------|
A|--2----2----2----2----3----4----------------------------|
E|--0----3----0----3----4----5-----0----3----5----0----5--|

e|------------------------------------------------------------|
B|------------------------------------------------------------|
G|------------------------------------------------------------|
D|------------------------------------------------------------|
A|--2----2----2----2----3----4--------------------------------|
E|--0----3----0----3----4----5-----5---3---0---2---3---2---0--|

e|-------------------------------------------------------|
B|-------------------------------------------------------|
G|-------------------------------------------------------|
D|-------------------------------------------------------|
A|--2----2----2----2----3----4---------------------------|
E|--0----3----0----3----4----5-----5*-5*-4*-4*-3*-2*-1*--|

e|--------------------------------------------------------------------------|
B|--------------------------------------------------------------------------|
G|--------------------------------------------------------------------------|
D|--------------------------------------------------------------------------|
A|--4---4--4--7--7--7--6---6--6---6-6----4---4--4--7--7--7--6---6--6---6-6--|
E|--2---2--2--5--5--5--4---4--4---44----2---2--2--5--5--5--4---4--4---44--|


ENDING

e|-----------------3-------------------3-------------------3----3----6----9----12--|
B|-----------------3-------------------3-------------------3----2----5----8----11--|
G|-----------------0-------------------0-------------------0----3----6----9----12--|
D|--2----2--2--2---0----2----2--2--2---0----2----2--2--2---0----2----5----8----11--|
A|--2----2--2--2---x----2----2--2--2---x----2----2--2--2---x-----------------------|
E|--0----0--0--0---3----0----0--0--0---3----0----0--0--0---3-----------------------|

e|-----------------3-------------------3-------------------3----3----6----9----12--|
B|-----------------3-------------------3-------------------3----2----5----8----11--|
G|-----------------0-------------------0-------------------0----3----6----9----12--|
D|--2----2--2--2---0----2----2--2--2---0----2----2--2--2---0----2----5----8----11--|
A|--2----2--2--2---x----2----2--2--2---x----2----2--2--2---x-----------------------|
E|--0----0--0--0---3----0----0--0--0---3----0----0--0--0---3-----------------------|

e|--------------------------------------------------|
B|--------------------------------------------------|
G|--------------------------------------------------|
D|--------------------------------------------------|
A|--7--5-----5--------------------------------------|
E|--------7-----7--5--7--5--3--5--3--5--2--3--2--0--|

e|--------------------------------------------------|
B|--------------------------------------------------|
G|--------------------------------------------------|
D|--------------------------------------------------|
A|--7--5-----5--------------------------------------|
E|--------7-----7--5--7--5--3--5--3--5--2--3--2--0--|

e|--------------------------------------------------|
B|--------------------------------------------------|
G|--------------------------------------------------|
D|--------------------------------------------------|
A|--7--5-----5--------------------------------------|
E|--------7-----7--5--7--5--3--5--3--5--2--3--2--0--|

e|-------------------------------------------------------------------------------|
B|-------------------------------------------------------------------------------|
G|-------------------------------------------------------------------------------|
D|-------------------------------------------------------------------------------|
A|--7--5-----5---------------------------------------2----2----2----2----3----4--|
E|--------7-----7--5--7--5--3--5--3--5--2--3--2--0---0----3----0----3----4----5--|


INTRO

VERSE

CHORUS

VERSE

CHORUS

ENDING




| /  slide up
| \  slide down
| h  hammer-on
| p  pull-off
| ~  vibrato
| *  harmonic
| x  Mute note
===============================================================================
Related for Omaha Stylee tab