Guitaretab - guitar tabs
Song name
# A B C D E F G H I J K L M N O P Q R S T U V W X Y Z

311 - Frolic Room tab

Frolic Room
311
Donít Tread on Me
standard tuning

Verses

G|-----------------------------------------|
D|-----------------------------------------|
A|-------2-2-----4-7-------6---------4-7---|
E|-0-2-4-------5-------7-7---5-5---5-------|

repeat as necessary


Bridge 1

G|------------------------------------------------|
D|------------------------------------------------|
A|------------------------------------------------|
E|-2-2--2-2-2/4-4--4-4-4/5-5--5-5-5/7-7--7-7-7\\--| x3, then:

G|-------------------------------------------------|
D|-------------------------------------------------|
A|-------------------------------------------------|
E|-2-2--2-2-2/4-4--4-4-4/5-5--5-5-5/7-7--7-7-7--7--|

Bridge 2

G|--------------------------|
D|--------------------------|
A|--------------------------|
E|-0-0---4-4---5-5---7-7----| x4

Chorus
[ Tab from: http://www.guitaretab.com/numeric/311/60366.html ]
G|----------------------------------|
D|----------------------------------|
A|-4-4-4-4-4------------------------|
E|-----------5-5-5-5-4-4-2-0--0-0---|

G|----------------------------------|
D|----------------------------------|
A|-4-4-4-4-4------------------------|
E|-----------5-5-5-5-4-4-2-0--4-0---|

G|----------------------------------|
D|----------------------------------|
A|-4-4-4-4-4------------------------|
E|-----------5-5-5-5-4-4-2-0--0-0---|

G|--------------------------------------|
D|--------------------------------------|
A|-4-4-4-4-4----------------------------|
E|-----------5-5-5-5-7-7-7-7-7-7-7-7-7--|


G|------------------------------------|
D|-/7-7-7-7-7-7-7-7-7-7-7-7-7-7-7-7---|
A|------------------------------------|
E|------------------------------------|

End note

G|-------|
D|-------|
A|-------|
E|--0~~--|

That should be everything. Itís an easy song, just keep an ear out for the section changes.
Related for Frolic Room tab