Song name
# A B C D E F G H I J K L M N O P Q R S T U V W X Y Z

311 - Long For The Flowers tab

Long For The Flowers
311
Don't Tread on Me

Good song. Other tabs have it in Drop D, but its not. Even though the second chord 
like the first three strings open on drop D, its not. Here it is.

Stnadard Tuning
Intro/Verse
e---------------------------------------|
b---------------------------------------|
g---------------------------------------|
d-3-33-3-3-7-7-77-7-5-55-5-5-7-7-7-5--5-|
a-3-33-3-3-5-5-55-5-5-55-5-5-7-7-7-5--5-|
E-1-11-1-1-5-5-55-5-3-33-3-3-5-5-5-3--3-|

Chorus A (One day...)
e----------------------------5-6-5------------------------|
b-4*--4*--4*-----------5-6-8-------8-6-5------------------|
g---4*--4*---------5-7-------------------7-5--------------|
d------------5-7-8---------------------------7    Repeat--| 2x
a---------------------------------------------------------|
E---------------------------------------------------------|

Chorus B (You said...) [Guitar One plays Intro/Verse]
e---------------------------------------|
b---------------------------------------|
g-s10---s7----2-2-0--3p2p0---0  Repeat--| 4x
d-------s7-----------------3------------|
a---------------------------------------|
E---------------------------------------|

Chorus A

Chorus B

Bridge                 Ending One           Ending Two
e--------------------|---------------------|------------------------------|
b--------------------|---------------------|------------------------------|
g--------------------|---------------------|------------------------------|
d-xx8-8--8-8-x8-8-8-8|-xx7-7--7--7x--------|7--6--5--4--3-----------------|
a-xx8-8--8-8-x8-8-8-8|-xx7-7--7--7x--------|7--6--5--4--3-----------------|
E-xx6-6--6-6-x6-6-6-6|-xx5-5--5--5x-3-5-3-5|5--4--3--2--1-----------------|

Solo (Guitar One plays Intro/Verse)
e-13p10----10---------------------------------------------------------------------------|
b-------13----13p10-13p10----10---------------------------------------------------------|
g-------------------------12----12p10-12p10----10---------------------------------------|
d-------------------------------------------12----12p10-12p10----10--10-12-10-12-10-12--|b
a-------------------------------------------------------------12------------------------|
E---------------------------------------------------------------------------------------|

e-13p10----10---------------------------------------------------------------------------|
b-------13----13p10-13p10----10-----------------------------------------10-10-10-13-----|
g-------------------------12----12p10-12p10----10-----------10---10-12---------------12-|
d-------------------------------------------12----12-12--12-----------------------------|
a---------------------------------------------------------------------------------------|
E---------------------------------------------------------------------------------------|

e-------------10-12--13-12-10--13p12p10-13p12p10-13p12p10-13p12p10-13p12p10-13p12p10---|
b-13-10---13---------------------------------------------------------------------------|
g--------------------------------------------------------------------------------------|
d--------------------------------------------------------------------------------------|
a--------------------------------------------------------------------------------------|
E--------------------------------------------------------------------------------------|

e--15--15151515--17-17b----------------------------------------17-15-------15-----------|
b--------------------------------------------------------15h18-------18-17----18--15b---|
g--------------------------------------------------15h17-----------------------------17-|
d----------------------------------------15--15h17--------------------------------------|
a------------------------------15--15h17------------------------------------------------|
E------------------------15h17----------------------------------------------------------|

e--------------------------------------------------------------------------------------|
b----15--------------------------------------------------------------------------------|
g-17----17-15-----15--------------------------------------15----15-17-15---------------|
d-------------17-----17---15-17-15-----------15----15--17----17----------17-15b--------|
a----------------------------------17--15-17----17-------------------------------------|
E--------------------------------------------------------------------------------------|

Good song. Not sure about last parts of solo but its in the right scale. Thanks
Tap to rate this tab
# A B C D E F G H I J K L M N O P Q R S T U V W X Y Z