Song name
# A B C D E F G H I J K L M N O P Q R S T U V W X Y Z

311 - Buster 101 tab

'Buster 101'
performed by 311
demo for ????
music by miT,nick,p-nut,chad,s.a
tuning(EADGBe)
=============
Main riff
=========
1:-----------------------------------------------|
2:-----------------------------------------------|
3:-----------------------------------------------|
4:-----------------------------------------------|
5:--0h5-7-7-2-2-0h5-7-7-2-2-0h5-7-7-2-2--7-7-2-2-|
6:----------0-0---------0-0---------0-0--5-7-0-0-|

riff 2
=======
1:-------------------------|
2:-------------------------|
3:-------------------------|
4:-------------------------|
5:-2-2-8-7-6-5-4-3-2-------|
6:-0-0-6-5-4-3-2-1-0-------|
   P P P P P P P P P

It's a short song,but fun to play.Enjoy!!!!
Tap to rate this tab
# A B C D E F G H I J K L M N O P Q R S T U V W X Y Z