Song name
# A B C D E F G H I J K L M N O P Q R S T U V W X Y Z

311 - Whos Got The Herb tab

Great, simple song. leave me any questions or comments regarding this song please. By 
way, i've got the herb.
This tab is 100% correct


Intro
|----------------------10--|
|----------------------12--|
|--------------7-------11--|
|----9-9-9-9-9---------12--|
|--------------------------|

Entire Song except during solos:
|---12---------16--12-12----10---------14--10-10---|
|-----12-----------12-12------10-----------10-10---|
|-------13---------13-13--------11---------11-11---|
|---------14-------14-14----------12-------12-12---|
|-----------14----------------------12-------------|
|--------------------------------------------------|

Solos:
Just play around on some high and trippy notes, itll work out.


Ending: :48


Part A
|----------------------------------------------|
|----------------------------------------------|
|----------------------------------------------|>2x
|--------------------------------------5-5-4-4-|
|--2-2-4-5-2-4-5-2-4-5-5-2-2-4-5-2-4-5-3-3-2-2-|
|--0-0-2-3-0-2-3-0-2-3-3-0-0-2-3-0-2-3---------|


Part B
|-----------------------------------------------------|
|-----------------------------------------------------|
|-----------------------------------------------------|
|-----------------------------------------------------|
|--7-7-7-7-7-7-7-7-7-7-7-7-7-7-7-7-7-7-7-7-7-7-7-6-5--|
|--5-5-5-0-0-0-5-5-5-0-0-0-5-5-5-0-0-0-5-5-5-0-5-4-3--|

Part A 2x

Part B 1x

                                     Slide down
Ending                                   \/
|------------------------------------------|
|------------------------------------------|
|------------------------------------------|
|--5-5-5-5-5-5-5-5-5-5-5-5-5-5-5-5-5-5-5-5-|
|--3-3-3-3-3-3-3-3-3-3-3-3-3-3-3-3-3-3-3-3-|
|------------------------------------------|
Tap to rate this tab
 
# A B C D E F G H I J K L M N O P Q R S T U V W X Y Z