Song name
# A B C D E F G H I J K L M N O P Q R S T U V W X Y Z

311 - Always An Excuse When You Need One tab

Help us improve GuitareTab! Take a short survey!
~~~~~~~~~~~~~~~~~~~~~~~~~~~~~~~~~~~~~~~~~~~~~~~~~~~~~~~~~~~~~~~~~~~~~~~~~~~~

      There's Always An Excuse When You Need One - 311

~~~~~~~~~~~~~~~~~~~~~~~~~~~~~~~~~~~~~~~~~~~~~~~~~~~~~~~~~~~~~~~~~~~~~~~~~~~~

Tabbed By: Phil Dimotsis
email:pjd1024@vt.edu

tuning: standard
key: G Major

SOLO - the first six notes sound a bit off but it helps lead into the rest..
it's basically just playing triplets really fast...and the whole thing is in G major so 
might help people.

-------------------------------------------------------------|
-------------------------------------------------------------|
-------------------------------------------------------------|
-------------------------------------------------------------|
-----------------------------------------14----14--15-14-15--|
-12-10-12--14-12-14--15-14-15--17-15-17-----17---------------|

-------------------------------------------------------------|
-------------------------------------------------------------|
-----------------------------------------14----14--16-14-16--|
-----------14----14--16-14-16--17-16-17-----17---------------|
-17-15-17-----17---------------------------------------------|
-------------------------------------------------------------|

-------------------------------14----14--15-----------15----15--|
-----------15----15--17-15-17-----17--------15--15-15----15-----|
-17-16-17-----17------------------------------------------------|
----------------------------------------------------------------|
----------------------------------------------------------------|
----------------------------------------------------------------|

-15h17-17-17-15h17-17bws-17bwhs---15----15-17-17bwhs---15----15-17-17bwhs-|
-------------------------------------17-------------------17--------------|
--------------------------------------------------------------------------|
--------------------------------------------------------------------------|
--------------------------------------------------------------------------|
--------------------------------------------------------------------------|

--17p16p15-------------------------------------------------------------------|
-----------17p16p15--------15--------15-------15----------15----15-17-15-17--|
--------------------17-16-----17-16-----17-16----17-16-17----17--------------|
-----------------------------------------------------------------------------|
-----------------------------------------------------------------------------|
-----------------------------------------------------------------------------|

--14----14-15-14-15-17-15-17-|
-----17----------------------|
-----------------------------|
-----------------------------|
-----------------------------|
-----------------------------|


---171514-171514-171514-171514--1919191919--2020202020---22/---------|
---------------------------------------------------------------------|
---------------------------------------------------------------------|
---------------------------------------------------------------------|
---------------------------------------------------------------------|
---------------------------------------------------------------------|
Related for Always An Excuse When You Need One tab