Song name
# A B C D E F G H I J K L M N O P Q R S T U V W X Y Z

311 - Its Getting Okay Now tab

Help us improve GuitareTab! Take a short survey!
Artist: 311
Album: Don't Tread On Me
Title: Its Getting Okay Now
Tabbed by: Momo

Standard Tuning: EADGBE

 Intro [Distortion w/ Octave pedal]:                        Riff 1 (x2)
1:---------------------------------------------------------|-----------------------------------------------------|
2:---------------------------------------------------------|-----------------------------------------------------|
3:---------------------------------------------------------|-----------------------------------------------------|
4:---------------------------------------------------------|-----------------------------------------------------|
5:----------------7-7-7-7-7------------------7-7-7-7-7-----|--------------7-7-7-7-7-----------------7-7-7-7-7----|
6:-5--0-5-8-5-8\------------8\-5--0-5-8-5-8\------------8\-|-5--5-8-5-8\------------8\-5--5-8-5-8\------------8\-|

 Riff 2 (x2) [Distortion]:
1:-----------------------------------------------------------------------------------------------------------|
2:-----------------------------------------------------------------------------------------------------------|
3:-----------------------------------------------------------------------------------------------------------|
4:----7-7------5-5-0-------------7-7------5-5-0------------7-7------5-5-0-------------7-7------5-5-0---------|
5:---------5h7-------4-4--------------5h7-------4-4-------------5h7-------4-4--------------5h7-------4-4-----|
6:-5----------------------5-3-5---------------------5\--5----------------------5-3-5---------------------5\--|

 Riff 3 [Distortion]:
1:--5--------3----------------------------|      |--5--------3--------|
2:--5--77----3----------------------------|      |--5--77----3--------|
3:--6--77--4-4--7-------------------4-----|      |--6--77--4-4--7-----|
4:--7--77--5-5--7----------4-0h4h5h7-7-5--|<(x3) |--7--77--5-5--7-----|
5:--7--55--5-5--5---0h4h5h7---------------|then> |--7--55--5-5--5-----|
6:--5------3-3--5-------------------------|      |--5------3-3--5-----|

Repeat Riff 1 (x2)
Repeat Riff 2 (x2)
Repeat Riff 3

 Riff 4 [Dist. w/ oct pdl]
1:---------------------------------------------------------------|
2:---------------------------------------------------------------|
3:---------------------------------------------------------------|
4:---------------------------------------------------------------|
5:-5-7----------------------------5-7----------------------------|
6:-----0-5-6-0-3-5-0-2-0-2-3-2-0------0-5-6-0-3~-0-2-0-2-3-2-0---|

1:---------------------------------------------------------------|
2:---------------------------------------------------------------|
3:---------------------------------------------------------------|
4:---------------------------------------------------------------| (x3)
5:-5-7----------------------------5-7----------------------------|
6:-----0-5-6-0-3-5-0-2-0-2-3-2-0------0-5-6-0-3*-0-2-0-2-3-2-0---|
                                               * = pinch harmonic
Repeat Riff 3
Repeat Riff 1 (x2)

 End on
1:------|
2:------|
3:------|
4:------|
5:------|
6:-5\\--|


| /  slide up
| \  slide down
| h  hammer-on
| p  pull-off
| ~  vibrato
===============
Related for Its Getting Okay Now tab