Song name
# A B C D E F G H I J K L M N O P Q R S T U V W X Y Z

311 - Mase tab

                              ...::311::...
                                   MASE


Song:Mase
Artist:311
Album:DTOM b-side
the whole song is palm muted
standard tuning
e|-------------------------------------------------------------------------|
B|-------------------------------------------------------------------------|
G|-------------------------------------------------------------------------|
D|-----------------------------------------2-2-2-2-2-----------------------|
A|--0-0-3-3---0-0-3-3---0-0-3-3---0-0-3-3------------3-0-------------------|
E|-------------------------------------------------------------------------|


e|-------------------------------------------------------------------------|
B|-------------------------------------------------------------------------|
G|-------------------------------------------------------------------------|
D|-----------------------------------------2-2-2-2-2-----------------------|
A|--0-0-3-3---0-0-3-3---0-0-3-3---0-0-3-3------------3-0-------------------|
E|-------------------------------------------------------------------------|

e|-------------------------------------------------------------------------|
B|-------------------------------------------------------------------------|
G|-------------------------------------------------------------------------|
D|----------2-2-2-2-2--------------2-2-2-2-2--------------2-2-2-2-2--------|
A|-0-0-3-3------------3-0--0-0-3-3-----------3-0--0-0-3-3-----------3-0----|
E|-------------------------------------------------------------------------|

-------------------thats the whole song very simple enjoy-------------------
Tap to rate this tab
# A B C D E F G H I J K L M N O P Q R S T U V W X Y Z