Song name
# A B C D E F G H I J K L M N O P Q R S T U V W X Y Z

311 - Into The Flame tab

'into the flame'
performed by 311
music by:hexum,miT,p-nut,sexton,s.a
tuning(EADGBe)
--------------
riff 1
=========
1:-------------0-----------------------------|
2:-------------0-----------------------------|
3:-------------0-----------------------------|
4:--4-4-4-4-4--2---4-4-4-4-4--4-4-4-4-4------|
5:-------------2-----------------------------|
6:--2-2-2-2-2------2-2-2-2-2--2-2-2-2-2------|

riff 2
=========
1:-----------------------------------------------------|
2:-----------------------------------------------------|
3:-----------------------------------------------------|
4:-----------------------------------------------------|
5:-----------------------------------------------------|
6:--6-5-x-3-5--6-5-x-3-5--6-5-x-3-5--6-5-x-3-5----6--5-|


riff 3
=========
1:-----------------------------------------------------|
2:-----------------------------------------------------|
3:-----------------------------------------------------|
4:-6-6-4-6---------6-6-4-6--------6-6-4-6--------------|
5:-6-6-4-6---------6-6-4-6--------6-6-4-6--------------|
6:-4-4-2-4--/8\2---4-4-2-4--/8\2--4-4-2-4--/8\2--------|
:not shure about the slide but i think its right
Tap to rate this tab
 
# A B C D E F G H I J K L M N O P Q R S T U V W X Y Z