Song name
# A B C D E F G H I J K L M N O P Q R S T U V W X Y Z

311 - Wandering Around tab

'Wandering Around'
performed by 311
b-side from the album "Dont Tread on Me"
music by hexum,miT,chad,p-nut,s.a
tuning(EADGBe)
==============
riff 1:
=======
1:------------------------------------------------------------|
2:------------------------------------------------------------|
3:-----------------------11-13-13-11-------11--11-------------|
4:----------14--14-13-14-------------13-----------13--13-14---|
5:----11-14-----------------------------14--------------------|
6:-12---------------------------------------------------------|


1:---------------------------------------------------------------|
2:------------------------------------------12-12----------------|
3:------------------------11-13-13--11-----------11--------------|
4:-----------14--14-13-14--------------13----------13----13-14---|
5:-----11-14------------------------------14----------14---------|
6:--12-----------------------------------------------------------|

riff 2
=======
1:--------------------|
2:--5-----------------|
3:--6-----------------|
4:--6-----------------|
5:--4-----------------|
6:--------------------|
:ad lib with this chord

solo
=======
1:-----14---------------------------------------------|
2:--17----17-14/16-14------------------------12/14-12-|
3:--------------------16-13-16-16-13-11-11-9----------|
4:----------------------------------------------------|
5:----------------------------------------------------|
6:----------------------------------------------------|

1:----------------------------------------------------|
2:--19-19-19/17--17-17-14/16-12---12-9-12^------------|
3:----------------------------------------------------|
4:----------------------------------------------------|
5:----------------------------------------------------|
6:----------------------------------------------------|

1:-----14---------------------------------------------|
2:--17----17-14/16-14-----------------------12/14-12--|
3:-------------------16-13-16-16-13-11-11-9-----------|
4:----------------------------------------------------|
5:----------------------------------------------------|
6:----------------------------------------------------|

1:----------------------------------------------------|
2:--17/19/17-14/16--12-12-12/14-12---10/12/10---------|
3:--------------------------------------------9/11/9--|
4:----------------------------------------------------|
5:----------------------------------------------------|
6:----------------------------------------------------|
Tap to rate this tab
 
# A B C D E F G H I J K L M N O P Q R S T U V W X Y Z