Song name
# A B C D E F G H I J K L M N O P Q R S T U V W X Y Z

311 - Lively Up Yourself tab

'Lively up Yourself'
performed by 311
music by Bob Marley
tuning(EADGBe)
================
Intro:
======
   N.C
1:--------------------------|
2:--------------------------|
3:--------------------------|
4:------------4--6----------|
5:---4--6---5---------4--6--|
6:-5----------------5-------|

Chorus:
=======
   D#        C
1:-11--11----8--8-|
2:-11--11----9--9-|
3:-12--12----8--8-|
4:----------------|
5:----------------|
6:----------------|

Bridge:
=======
   N.C
1:------------------|
2:------------------|
3:------------------|
4:---4-6-8----------|
5:-6------------4-6-|
6:----------4-6-----|

Chorus B:
=========
   D#   C
1:-11---8-|
2:-11---9-|
3:-12---8-|
4:--------|
5:--------|
6:--------|

End:
====
   N.C
1:--------|
2:--------|
3:--------|
4:--------|
5:---4--6-|
6:-5------|

It's a simple song,but fun to play.Enjoy!!!!
Tap to rate this tab
# A B C D E F G H I J K L M N O P Q R S T U V W X Y Z