Song name
# A B C D E F G H I J K L M N O P Q R S T U V W X Y Z

311 - Secret Track On Evolver tab

-----------------------------------------------|
                Secret Track on Evolver - 311 -|
Note: i play this song with the rhythm pickup. And also i finger pick it on the fret 
to give it a different sound. I dont know let me know what you guys think.

Tabbed by:Will
Email:dredgglassjaw@hotmail.com

Tuning:Standard Tuning

Intro/Verse
E--------------------------------------------|
B---1----0--------------------1---0----------|
G----------------0-0h2p0-0---------------0-0-|
D--2---0------0h2-2-----2----2---0----0h2-2--|
A-3---2----0----------------3---2---0--------|
E--------------------------------------------|

Chorus
E--------------------------------------------------|
B---1-3-1--0h1-0-----------------------------------|
G---------------2-0------------2-0-----------------|
D--2-2-2-2---------2-2/3p2-2-0----2-2-2-2/3p2------|
A-3------------------------------------------0-2-3-|
E--------------------------------------------------|

Ending
E-----0-----------|
B-1---0-----------|
G-0-0-0-----------|
D---2-------------|
A-----------------|
E-----------------|

Intro/Verse 2X
Chorus 2X
Intro/Verse 2x
Chorus 2X
Ending

| /  slide up
| \  slide down
| h  hammer-on
| p  pull-off
| ~  vibrato
| +  harmonic
| x  Mute note
===============================================================================
Tap to rate this tab
 
# A B C D E F G H I J K L M N O P Q R S T U V W X Y Z