Song name
# A B C D E F G H I J K L M N O P Q R S T U V W X Y Z

312 Militia - Abortion tab

Help us improve GuitareTab! Take a short survey!
Artist - 312 Militia (http://listen.to/312Militia)
Song - Abortion
Writen by Jonathan Edwards and Josh Griffin
Tabbed by Marc Mooney
INTRO
Guitar 1
E--------------------
B--------------------
G--------------------
D--------------------
A--------------------
G-0---3---5---3---0---3---5---3 X2

Guitar 2
(Em)(A)(Em)(A)X2
G--0---0---0----0---0----5---5---5---5---5---0 X2
(Em)                     (A)               (Em)  (A)
 She bought some coat hangers at the store. 
G--0--0--0--0--0---5---5---5---5---5---0 X2
(Em)              (A)                       (Em)  (A)
 She had alot of coats laying on the floor. 
G-5---5---5---5---5--3-3-3-3-3
(G)                 (D) 
 Bonita came in and saw them 
G-5---5---5---5---5--3-3-3-3-3
 (G)                   (D)
 And this is what she said. 
G-------0-------3-----5----3---0-----3----5--------3 
(Em)                 (A)           (Em)              (A) 
"You filthy little whore dont you know what they're for" 

Chorus
G-5555533333-- 
(G) (D)
 Abortion 
 Abortion 
 Abortion 
G-0--0--0---0---0---5--5--5--5--5------0-3-5-3-0-3-5-3 
(Em)                 (A)               (Em)(A)(Em)(A)
 His shirt depicted opening some doors 
G-0--0--0---0---0---5--5--5--5--5------0-3-5-3-0-3-5-3 
(Em)               (A)                   (Em)(A)(Em)(A)
 By animals in the wild and nothing more 
G--5---5---5---5---5---3--3-3-3-3
(G)                      (A)
 Bonita couldn't take it lightly 
G-5---5---5---5---5--3-3-3-3-3
(G)                  (A)
 She had to put up a fight 
G-------0-------3--------5----3-----0----3----5--------3 
(Em)                    (A)        (Em)       (A) 
"That shirt is full of gore don't wear it no more" 

REPEAT CHORUS
Related for Abortion tab