Song name
# A B C D E F G H I J K L M N O P Q R S T U V W X Y Z

31knots - Hearsay tab

-----------------------------------|   FOR THE WHOLE SONG
-----8--------8--8--8----10-10-----|
-----7--------7--7--7----7--7------|
-----8--------8--8--8----8--8------|
-----------------------------------|
-----------------------------------|

THEN

-----------------------------------|   FOR THE CHORUS
-----------------------------------|
---3--3--0--3--3--0--3--3--0-------|
-----------------------------------|
-----------------------------------|
-----------------------------------|

THERE YA GO GREAT SONG TO SING AND PLAY
Tap to rate this tab
# A B C D E F G H I J K L M N O P Q R S T U V W X Y Z