Song name
# A B C D E F G H I J K L M N O P Q R S T U V W X Y Z

32 Leaves - Sudden Change tab

Artist: 32 Leaves
Album: Welcome to the Fall
Song: Sudden Change
Tuning: Drop D (DADGBe)
Tabbed by: Sylahr
eMail: sylahr@hotmail.com

---KEY---
h=hammer ons
p=pull offs
//=slide up neck
\\=slide down neck
pm..=palm mute
<=crescendo (increase volume)
>=decrescendo (decrease volume)
---KEY---


e|---|
B|-5-|Feedback on this E note
G|---|
D|---|
A|-2-|Hold this chord while crescendo
D|-2-|
   <

Opener   Main Riff
e|-----|---------------------------------------------|
B|-----|---------------------------------------------|
G|-----|-----6-6-6----6-6--------6-6--6-6-9-9-9--9-9-|
D|-----|-------------------------4-4--4-4-7-7-7--7-7-|
A|-0-2-|--0--4-4-4-0--4-4-0-2554-4-4--4-4-7-7-7--7-7-|
D|-0-2-|--0--------0------0-2554-4-4--4-4-7-7-7--7-7-|
pm . .

e|--------------------------------------------|
B|--------------------------------------------|
G|----6-6-6----6-6--------6-6--6-6-4-4-4--4-4-|
D|------------------------4-4--4-4-2-2-2--2-2-| Play the Main Riffs twice
A|-0--4-4-4-0--4-4-0-2554-4-4--4-4-2-2-2--2-2-| then onto verse.
D|-0--------0------0-2554-4-4--4-4-2-2-2--2-2-|

Verse        
e|-----------------------------------------------------------|
B|-----------------------------------------------------------|
G|---------2--2-2--------6--9-9---------2--2-2--------6--9-9-|
D|------0--0--0-0-----4--4--7-7------0--0--0-0-----4--4--7-7-|
A|-0-2--0--0--0-0-2-5-4--4--7-7-0-2--0--0--0-0-2-5-4--4--7-7-|
D|-0-2--0--0--0-0-2-5-4--4--7-7-0-2--0--0--0-0-2-5-4--4--7-7-|
pm . .            . .           . .            . .

e|-------------------------------------------------------------|
B|-------------------------------------------------------------|
G|---------2--2-2--------6--9-9---------2--2-2-------6-66-9999-|
D|------0--0--0-0-----4--4--7-7------0--0--0-0-----4-4-44-7777-|
A|-0-2--0--0--0-0-2-5-4--4--7-7-0-2--0--0--0-0-2-5-4-4-44-7777-|
D|-0-2--0--0--0-0-2-5-4--4--7-7-0-2--0--0--0-0-2-5-4-4-44-7777-|
pm . .            . .           . .            . .

Chorus
e|-----|---------------------------------------------|
B|-----|---------------------------------------------|
G|-----|-----6-6-6----6-6--------6-6--6-6-9-9-9--9-9-|
D|-----|-------------------------4-4--4-4-7-7-7--7-7-|
A|-0-2-|--0--4-4-4-0--4-4-0-2554-4-4--4-4-7-7-7--7-7-|
D|-0-2-|--0--------0------0-2554-4-4--4-4-7-7-7--7-7-|
pm . .

e|--------------------------------------------|
B|--------------------------------------------|
G|----6-6-6----6-6--------6-6--6-6-4-4-4--4-4-|
D|------------------------4-4--4-4-2-2-2--2-2-|
A|-0--4-4-4-0--4-4-0-2554-4-4--4-4-2-2-2--2-2-|
D|-0--------0------0-2554-4-4--4-4-2-2-2--2-2-|

Bridge
After 2nd Chorus play this         |             x4               |
e|---------------------------------|------------------------------|
B|---------------------------------|-tremolo----------picking-----|
G|---9----6----11---9------6----11-|-9-9-9-9-9-9-6-6-6-6-11111111-|
D|---------------------------------|------------------------------|
A|---7----4----9----7------4----9--|-7-7-7-7-7-7-4-4-4-4-9-9-9-9--|
D|---------------------------------|------------------------------|
This is Lead Guitar
I am unsure of the Background Chords.

After tremolo picking octaves play this 
e|----------------------------------------|
B|----------------------------------------|
G|----9---9---9---9---7---7---11--11--11--|
D|----9---9---9---9---7---7---11--11--11--|
A|--00--00--00--00--00--00--00--00--00----|
D|----------------------------------------|
pm  ..  ..  ..  ..  ..  ..  ..  ..  ..

End with
e|---|
B|---|
G|---|
D|-0-|
A|-0-|hold the chord
D|-0-|
   >

Play this order:
Main Riff x2
Verse x1
Chorus x2
Verse x1
Chorus x2
Bridge x1
Chorus x4
End

Email me if you find any errors or if you find something i did not put in this tab.
Tap to rate this tab
 
# A B C D E F G H I J K L M N O P Q R S T U V W X Y Z