Song name
# A B C D E F G H I J K L M N O P Q R S T U V W X Y Z

32 Leaves - No Meaning tab

Artist: 32 Leaves
Album: Panoramic
Song: No Meaning
Tabbed by: Sylahr
eMail: sylahr@hotmail.com
Tunning: Guitar 1 Drop Db/C# (Db Ab Db Gb Bb eb) or (C# G# C# F# A# D#)
         Guitar 2 Drop Db/C# (Db Ab Db Gb Bb eb) or (C# G# C# F# A# D#)

---KEY---
h=hammer ons
p=pull offs
//=slide up neck
\\=slide down neck
pm..=palm mute
*=harmoic
---KEY---

Opening
Guitar 1 (Clean)(Guitar 2 rests)
eb|---------------9----------------|
Bb|------12--------------10----10--|
Gb|----11------11------11----11----|
Db|-9--------9-------9------9------|
Ab|--------------------------------|
Db|--------------------------------|

Opening Chorus
Guitar 1                  (10th fret)
eb|-777------777-------------------10101010p999-777------777---------------|
Bb|----777------77777h8888h10101010----------------777------77777h8888h10--|
Gb|------------------------------------------------------------------------|
Db|-------999-----------------------------------------999------------------|
Ab|------------------------------------------------------------------------|
Db|------------------------------------------------------------------------|

Guitar 2
eb|--------------------------------------------------------------------|
Bb|--------------------------------------------------------------------|
Gb|--------------------------------------------------------------------|
Db|-999000999000-----------2-0-2-0------999000999000----------2-2--22--|
Ab|-999000999000-----------2-0-2-0-2320-999000999000----------2-2--22--|
Db|-999000999000-9*9*9*9*--2-0-2-0-2320-999000999000-9*9*9*9*-2-2--22--|
pm                                 ....

Verse
Guitar 1 (Clean)(Guitar 2 rests)
eb|---------------9----------------------------9------10----------12-|
Bb|------12--------------10----10------12----------------------------|
Gb|----11------11------11----11------11------11-----11--------11-----|
Db|-9--------9-------9------9------9-------9-----9---------9---------|
Ab|------------------------------------------------------------------|
Db|------------------------------------------------------------------|

Chorus                       
Guitar 1                    Play twice       
eb|-777------777-------------------10101010p999-777------777---------------|
Bb|----777------77777h8888h10101010----------------777------77777h8888h10--|
Gb|------------------------------------------------------------------------|
Db|-------999-----------------------------------------999------------------|
Ab|------------------------------------------------------------------------|
Db|------------------------------------------------------------------------|

Guitar 2       play this 3 times               play final 4th time
eb|-------------------------------------|--------------------------------|
Bb|-------------------------------------|--------------------------------|
Gb|-------------------------------------|--------------------------------|
Db|-999000999000-----------2-0-2-0------|-999000999000----------2-2--22--|
Ab|-999000999000-----------2-0-2-0-2320-|-999000999000----------2-2--22--|
Db|-999000999000-9*9*9*9*--2-0-2-0-2320-|-999000999000-9*9*9*9*-2-2--22--|
pm                                 ....

Bridge
Both Guitars
eb|----------------------------------------------------------|
Bb|----------------------------------------------------------|
Gb|----------------------------------------------------------|
Db|-12-14-12-0-0-9--0--22-2-222-2-222-12-14-12-0-0-5---------|
Ab|-12-14-12-0-0-9--0--22-2-222-2-222-12-14-12-0-0-5---------|
Db|-12-14-12-0-0-9--0--22-2-222-2-222-12-14-12-0-0-5---------|
pm             .                                 . 

eb|----------------------------------------------------------|
Bb|----------------------------------------------------------|
Gb|----------------------------------------------------------|
Db|-12-14-12-0-0-9--0--22-2-222-2-222-12-14-12-0-0-----------|
Ab|-12-14-12-0-0-9--0--22-2-222-2-222-12-14-12-0-0-555555555-|
Db|-12-14-12-0-0-9--0--22-2-222-2-222-12-14-12-0-0-555555555-|
pm             .                                 . ......... 

---ORDER---
Opening
Opening Chorus
Verse
Chorus
Verse
Chorus
Bridge
Chorus
---ORDER---

eMail me if you find any errors or anything I did not add.
   -Sylahr
Tap to rate this tab
 
# A B C D E F G H I J K L M N O P Q R S T U V W X Y Z