Guitaretab - guitar tabs
Song name
# A B C D E F G H I J K L M N O P Q R S T U V W X Y Z

32 Leaves - All Is Numb tab

Tuning-Standard
Key- Hammer On- H
     Slide Up- /
     Slide down-\
     Palm Mute- Pm......
     Let Ring- ~
     Pull Off- P
This Is My First Tab i have ever done so its probably wrong alot =) but i tried lol.

INTRO:
E|-------------------------------------------------------------------|
B|-------------------------------------------------------------------|
G|-------------------------------------------------------------------|
D|-4--2--1~--1h2--1--------------------------------------------------|
A|---------------------4---4-4 --4 44-- 4--44--4--4--4--------------|
E|-------------------------------------------------------------------|
                           Pm.      Pm.     Pm.   Pm.


E|-------------------------------------------------------------------|
B|-------------------------------------------------------------------|
G|-------------------------------------------------------------------|
D|-4--2--1-1 1-1h2--1------------------------------------------------|(x2)
A|---------------------4---4-4 --4 44-- 4--44--4--4--4--------------|
E|-------------------------------------------------------------------|
                           Pm.      Pm.     Pm.   Pm.

E|-------------------------|
B|-------------------------|
G|----------1--------------|
D|-4--2--1----4--2---------|
A|------------------4~-----|
E|-------------------------|

VERSE:

E|---------------------------------------------|
B|---------------------------------------------|
G|-4/6--666666--8888/999--9\4--444444---444444-|
D|---------------------------------------------| (x6)
A|-2/4--444444--6666/777--7\2--222222---222222-|
E|---------------------------------------------|


RIFF BEFORE CHORUS:
E|-------------|
B|-------------|
G|888-99-88----|
D|-------------|
A|666-77-66----|
E|-------------|


CHORUS:
E|--------------------------------------------------------------------|
B|--------------------------------------------------------------------|
G|--6--9---------------------------66x-4-44444------------------------|(x2)
D|--6--9--9-99999---777-4-44444----66x-4-44444--4~--7~----------------|
A|--4--7--9-99999---777-4-44444----44x-2-22222--4~--7~----------------|
E|--------7-77777---555-2-22222-----------------2~--5~----------------|
[ Tab from: http://www.guitaretab.com/numeric/32-leaves/95772.html ]
Solo I:
E|-----------------------------------|
B|-----------------------------------|
G|-----------------------------------|
D|-444h6-666/9\6---444h6-666---------|
A|----------------------------2/4----|
E|-----------------------------------|

E|------------------------------------------------------|
B|------------------------------------------------------|
G|-----------------88-9p8-6-8p6-4-6p4-4444h6------------|
D|-444h6-666/9\6----------------------------------------|
A|------------------------------------------------------|
E|------------------------------------------------------|

E|-----------------------------------|
B|-----------------------------------|
G|-----------------------------------|
D|-444h6-666/9\6---444h6-666---------|
A|----------------------------2/4----|
E|-----------------------------------|

E|-------------------------------------------|
B|---------------------------------5/9-5-----|
G|-----------------88-9p8-6-8p6-4------------|
D|-444h6-666/9\6-----------------------------|
A|-------------------------------------------|
E|-------------------------------------------|

REPEAT TWICE (x2)!


Solo II:

E|------------------------------------------------------------|
B|------------------------------------------------------------|
G|--444h6-66666/8-888888/9-999/11-11-11-11p9-9p8-8888h9p8-6-4-|
D|------------------------------------------------------------|
A|------------------------------------------------------------|
E|------------------------------------------------------------|

E|------------------------------10------12-12-12-12-12/16-16-16-16-9-|
B|-7--7--7/9 9999----------999~--9--12-------------------------------|
G|--4--4----------6666666--------------------------------------------|
D|-------------------------------------------------------------------|
A|-------------------------------------------------------------------|
E|-------------------------------------------------------------------|

OUTRO/END OF SOLO:
E|------------------------------0-|
B|------------------------------0-|
G|----------8-6-----------------6-| FLANG EFFECT
D|-6666h999--6--6666-4~-6~-2~~~~6-|
A|------------------------------4-|
E|--------------------------------|

THE END! COMMENT AND TELL ME HOW I DID!!!! AND CORRECT ME! its my first tab so i need 
help bro's and hoes!
       |  |
       |  |
       | >                 Tabbed By Stephen Anderson o ya te he he
   \_________/
Related for All Is Numb tab