Guitaretab - guitar tabs
Song name
# A B C D E F G H I J K L M N O P Q R S T U V W X Y Z
Home / Numeric / 33a / Maia tab

33a - Maia tab

33a - Maia BY T2nike
33a is The Best Georgian Band

Duration Legend
---------------
Q - quarter
E - 8th

Tablature Legend
----------------
s - legato slide


Intro:

     Q    E   E  Q     Q     E   E  Q    H
E||-------------------12----10s--8-------8---|
B||--------------8---------------------------|
G||-------8s--9---------------------9--------|
D||------------------------------------------|
A||--0---------------------------------------|
E||------------------------------------------|


  Q    Q    Q     Q     E   E  Q    H
-----------------12----10s--8-------8--------|
------------8--------------------------------|
-------8-----------------------8-------------|
--0------------------------------------------|
---------------------------------------------|
---------------------------------------------|


  Q    Q    Q     Q    E   E  Q    H
-----------------10----8s--7-------7--------|
------------7-------------------------------|
-------7----------------------7-------------|
--0-----------------------------------------|
--------------------------------------------|
--------------------------------------------|


   Q    Q    Q    Q    Q    Q    H
------------------------------------------|
---8--------------8--------------8--------|
-------------7---------7------------------|
--------9-------------------9-------------|
--10--------------------------------------|
------------------------------------------|

[ Tab from: http://www.guitaretab.com/numeric/33a/189497.html ]
  Q    E   E  Q     Q     E   E  Q    H
-------------------12----10s--8-------8------|
--------------8------------------------------|
-------8s--9---------------------9-----------|
---------------------------------------------|
--0------------------------------------------|
---------------------------------------------|


  Q    Q    Q     Q     E   E  Q    H
-----------------12----10s--8-------8--------|
------------8--------------------------------|
-------8-----------------------8-------------|
--0------------------------------------------|
---------------------------------------------|
---------------------------------------------|


  Q    Q    Q     Q    E   E  Q    H
-----------------10----8s--7-------7--------|
------------7-------------------------------|
-------7----------------------7-------------|
--0-----------------------------------------|
--------------------------------------------|
--------------------------------------------|


  Q    Q    Q    Q    Q    Q    Q    Q
--3--------------3---------3---------3----|
-------3----1---------0-------------------|
--------------------------------2---------|
------------------------------------------|
------------------------------------------|
--3---------------------------------------|

Verse:
There are chords:
Em7     Am7     Cm7  Gadd9/B    Em7 //
Em7     Am7     Cm7  Gadd9/B    Em7 //
-----------------------------------
     Em7  Am7  Cm7  Gadd9
E||--3----0----3----3-----|
B||--3----1----4----3-----|
G||--0----0----3----2-----|
D||--2----2----5----0-----|
A||--2----0----3----2-----|
E||--0--------------------|


Chorus:
Em       D      G     Cmaj7
Em       D      G     Cmaj7
Em7     Am7     Cm7  Gadd9/B    Em7

33a's Official Site: http://myspace.com/33a
Related for Maia tab
Maia chords by 33a