Song name
# A B C D E F G H I J K L M N O P Q R S T U V W X Y Z

33miles - The Arms That Hold The Universe tab

This is just the intro which I learned from watching 33miles perform this live on 
YouTube, sorry I don't know the chords played after the intro.

Capo 6 or play as if on capo 6 (capo isn't necessary for intro)

\ =slide up to fret
/ =slide down to fret
Finger pick intro:
G [300430]
[-------------------------------------------------3----------2-------------------|
[-------3---------------3-----------------3-----------------------------3--------|
[-4------------4----------------2------------------------------------------------|
[--------------------------------------------------------------------------------|
[------------------------------------------------------------------2----------2--|
[----3-----3-----3---------3-------3-----------------3---------------------------|

---2---------------------2---------------]
-------------3-----------------3-\5---5--]
-----------------------------------------]
-----------------------------------------]
--------2----------2---------------------]
-----------------------------------------]

-------------]
---5-/3---3--]
-------------] x2 or how ever many times you hear it played.
-------------]
-------------]
-------------]
Tap to rate this tab
# A B C D E F G H I J K L M N O P Q R S T U V W X Y Z