Song name
# A B C D E F G H I J K L M N O P Q R S T U V W X Y Z

36 Crazyfists - Kenai tab

36 Crazyfists
Kenai
A Snow Capped Romance
Drop C- CGCFAD

-Intro-
Gtr 1- Distortion
D|-------------|----------------|
A|-------------|----------------|
F|-------------|----------------|
C|-feedback----|--4---4---4---4-|
G|-------------|--4---4---4---4-|
C|-------------|--4---4---4---4-|

Gtr 1,2- Distortion
D||-----------------------------------------------------|
A||o--------------------------------2*------------------|
F||---------------------------------2*------------------|
C||--0h1-0h1-0h1-0h1---3-1-3-1-3-1--2*--0h1-0h1-0h1-0h1-|
G||o-0h1-0h1-0h1-0h1---3-1-3-1-3-1------0h1-0h1-0h1-0h1-|
C||--0h1-0h1-0h1-0h1---3-1-3-1-3-1------0h1-0h1-0h1-0h1-|
                       pm- - - - -
D|----------------||
A|---------------o||
F|----------------||
C|-4---4---4---4--||
G|-4---4---4---4-o||
C|-4---4---4---4--||


-Bass-
F|-----------------|
C|-----------------|
G|-----------------|
C|-0h1-0h1-0h1-0h1-|


-Verse-
D|-----------------------------------------------------------------------------|
A|-----------------------------------------------------------------------------|
F|-----------------------------------------------------------------------------|
C|-0h1-0h1-0h1-0h3--2*---0h1-0h1-0h1-3h5--0h1-0h1-0h1-0h3--2*---0h1-0h1--4---4-|
G|-0h1-0h1-0h1-0h3--2*---0h1-0h1-0h1-3h5--0h1-0h1-0h1-0h3--2*---0h1-0h1--4---4-|
C|-0h1-0h1-0h1-0h3--2*---0h1-0h1-0h1-3h5--0h1-0h1-0h1-0h3--2*---0h1-0h1--4---4-|
“OVER MOUNTAINS I FEEL SAFE!!! SACRED WERE THOSE SUMMERS!!!”
D|-------------------------------------------------------------------------------------|
A|-------------------------------------------------------------------------------------|
F|-------------------------------------------------------------------------------------|
C|-0h1-0h1-0h1-0h3--2*---0h1-0h1-0h1-3h5--0h1-0h1-0h1-0h3--2*---0h1-0h1--4---4---4---4-|
G|-0h1-0h1-0h1-0h3--2*---0h1-0h1-0h1-3h5--0h1-0h1-0h1-0h3--2*---0h1-0h1--4---4---4---4-|
C|-0h1-0h1-0h1-0h3--2*---0h1-0h1-0h1-3h5--0h1-0h1-0h1-0h3--2*---0h1-0h1--4---4---4---4-|
“AND THESE MEMORIES I PLACE... IN MY HEART FOR SHELTER!!!”

D|------------------------------------------------------------------|
A|-------------------------------2*---------------------------------|
F|-------------------------------2*---------------------------------|
C|-0h1-0h1-0h1-0h1--3-1-3-1-3-1--2*--0h1-0h1-0h1-0h1--4---4---4---4-|
G|-0h1-0h1-0h1-0h1--3-1-3-1-3-1------0h1-0h1-0h1-0h1--4---4---4---4-|
C|-0h1-0h1-0h1-0h1--3-1-3-1-3-1------0h1-0h1-0h1-0h1--4---4---4---4-|
                    pm- - - - -
“AND I MODIFY, JUST TO SMELL THE OCEAN!!!”
D|---------------------------------------------------|
A|-------------------------------2*------------------|
F|-------------------------------2*------------------|
C|-0h1-0h1-0h1-0h1--3-1-3-1-3-1--2*--0h1-0h1-0h1-0h1-|
G|-0h1-0h1-0h1-0h1--3-1-3-1-3-1------0h1-0h1-0h1-0h1-|
C|-0h1-0h1-0h1-0h1--3-1-3-1-3-1------0h1-0h1-0h1-0h1-|
                    pm- - - - -
“AND I UNDERLINE, VISUALIZING MOTION!”


-Chorus-
D|-4---------------------------------------------------------|
A|-x---------------------------------------------------------|
F|-6-----------------------------4---------------------------|
C|-4--4-4-4-4-4-4-4-4-4-4-4-4-4--2-2-2-2-2-2-2-2-2-2-2-2-2-2-|
G|-4--4-4-4-4-4-4-4-4-4-4-4-4-4--2-2-2-2-2-2-2-2-2-2-2-2-2-2-|
C|-4--4-4-4-4-4-4-4-4-4-4-4-4-4--2-2-2-2-2-2-2-2-2-2-2-2-2-2-|
“And I guess I miss my home...      I could not stay...”

D|-----------------------------------------------------|----------------|
A|-----------------------------------------------------|----------------|
F|-8---------------------------------------------------|----------------|
C|-6--6-6-6-6-6-6-6-6-6-6-6-6-6--6/7-7-7-7-7-7-7/8-8-8-|--4---4---4---4-|
G|-6--6-6-6-6-6-6-6-6-6-6-6-6-6--6/7-7-7-7-7-7-7/8-8-8-|--4---4---4---4-|
C|-6--6-6-6-6-6-6-6-6-6-6-6-6-6--6/7-7-7-7-7-7-7/8-8-8-|--4---4---4---4-|
“I’ll return...       it’s alright...        I’m okay...”


-Bass-
F|-----------------|
C|-----------------|
G|-----------------|
C|-0h1-0h1-0h1-0h1-|


-Verse-
D|-----------------------------------------------------------------------------|
A|-----------------------------------------------------------------------------|
F|-----------------------------------------------------------------------------|
C|-0h1-0h1-0h1-0h3--2*---0h1-0h1-0h1-3h5--0h1-0h1-0h1-0h3--2*---0h1-0h1--4---4-|
G|-0h1-0h1-0h1-0h3--2*---0h1-0h1-0h1-3h5--0h1-0h1-0h1-0h3--2*---0h1-0h1--4---4-|
C|-0h1-0h1-0h1-0h3--2*---0h1-0h1-0h1-3h5--0h1-0h1-0h1-0h3--2*---0h1-0h1--4---4-|
“REOCURRED DAYDREAM!!! TIE UP STERN FIRST!!!”
D|-------------------------------------------------------------------------------------|
A|-------------------------------------------------------------------------------------|
F|-------------------------------------------------------------------------------------|
C|-0h1-0h1-0h1-0h3--2*---0h1-0h1-0h1-3h5--0h1-0h1-0h1-0h3--2*---0h1-0h1--4---4---4---4-|
G|-0h1-0h1-0h1-0h3--2*---0h1-0h1-0h1-3h5--0h1-0h1-0h1-0h3--2*---0h1-0h1--4---4---4---4-|
C|-0h1-0h1-0h1-0h3--2*---0h1-0h1-0h1-3h5--0h1-0h1-0h1-0h3--2*---0h1-0h1--4---4---4---4-|
“AND THESE GIFTS I’VE LEARNED!!! NEVER LEAVE ME!!!”

D|------------------------------------------------------------------|
A|-------------------------------2*---------------------------------|
F|-------------------------------2*---------------------------------|
C|-0h1-0h1-0h1-0h1--3-1-3-1-3-1--2*--0h1-0h1-0h1-0h1--4---4---4---4-|
G|-0h1-0h1-0h1-0h1--3-1-3-1-3-1------0h1-0h1-0h1-0h1--4---4---4---4-|
C|-0h1-0h1-0h1-0h1--3-1-3-1-3-1------0h1-0h1-0h1-0h1--4---4---4---4-|
                    pm- - - - -
“AND I REDESIGN!!! FAMILY AND GROWING!!!”
D|---------------------------------------------------|
A|-------------------------------2*------------------|
F|-------------------------------2*------------------|
C|-0h1-0h1-0h1-0h1--3-1-3-1-3-1--2*--0h1-0h1-0h1-0h1-|
G|-0h1-0h1-0h1-0h1--3-1-3-1-3-1------0h1-0h1-0h1-0h1-|
C|-0h1-0h1-0h1-0h1--3-1-3-1-3-1------0h1-0h1-0h1-0h1-|
                    pm- - - - -
“AND I REALIGN!!! FORGETTING NOTHING!!!”


-Chorus-
D||--4---------------------------------------------------------|
A||o-x---------------------------------------------------------|
F||--6-----------------------------4---------------------------|
C||--4--4-4-4-4-4-4-4-4-4-4-4-4-4--2-2-2-2-2-2-2-2-2-2-2-2-2-2-|
G||o-4--4-4-4-4-4-4-4-4-4-4-4-4-4--2-2-2-2-2-2-2-2-2-2-2-2-2-2-|
C||--4--4-4-4-4-4-4-4-4-4-4-4-4-4--2-2-2-2-2-2-2-2-2-2-2-2-2-2-|
“And I guess I miss my home...      I could not stay...”
“Maybe in a few years it'll come back to you”

D|------------------------------------------------------------||
A|-----------------------------------------------------------o||
F|-8----------------------------------------------------------||
C|-6--6-6-6-6-6-6-6-6-6-6-6-6-6--6/7-7-7-7-7-7-7/8-8-8-8-8-8--||
G|-6--6-6-6-6-6-6-6-6-6-6-6-6-6--6/7-7-7-7-7-7-7/8-8-8-8-8-8-o||
C|-6--6-6-6-6-6-6-6-6-6-6-6-6-6--6/7-7-7-7-7-7-7/8-8-8-8-8-8--||
“I’ll return...             it’s alright...        I’m okay...”
“Reflection becoming your virtue...”

-Bridge-
Gtr 1- clean              Gtr 1,2- dist.  Gtr 1- clean             vol. swell
D|-----------------------|--------------|------------------------|--------|
A|-----------------------|--------------|------------------------|--------|
F|-----------------------|--------------|------------------------|--------|
C|-4~--x-x--4~--x-x--4~--|---4--4--4----|--4~--x-x--4~--x-x--4~--|--~~(4)-|
G|-4~--x-x--4~--x-x--4~--|---4--4--4----|--4~--x-x--4~--x-x--4~--|--~~(4)-|
C|-4~--x-x--4~--x-x--4~--|---4--4--4----|--4~--x-x--4~--x-x--4~--|--~~(4)-|
                              pm -  -
“So sort me out...        LAY ME AWAY!    Over these mountains I feel safe”

Gtr 1,2- Distortion
D|----------------------------------------------------|
A|----------------------------------------------------|
F|-10/---------10/---------10/---------12-12--12--11/-|
C|-8/---3-3-3--8/---3-3-3--8/---3-3-3-----------------|
G|-8/---3-3-3--8/---3-3-3--8/---3-3-3--10-10--10--9/--|
C|-8/---3-3-3--8/---3-3-3--8/---3-3-3-----------------|
        pm- -       - - -       - - -
D|---------------------------------------------------------|-------------|
A|---------------------------------------------------------|-------------|
F|-10/---------10/---------10/---------12-12--12-14/11--12-|--16x//////--|
C|-8/---3-3-3--8/---3-3-3--8/---3-3-3----------------------|--16x//////--|
G|-8/---3-3-3--8/---3-3-3--8/---3-3-3--10-10--10-12/9---10-|--16x//////--|
C|-8/---3-3-3--8/---3-3-3--8/---3-3-3----------------------|-------------|
        pm- -       - - -       - - -                           pickslide

Gtr 1- Clean
D|------------------------------|
A|------------------------------|
F|------------------------------|
C|------------------------------|
G|-4-4-4-4-4-4-4--7-7-7-7-7-7-7-|
C|------------------------------|
   pm- - - - - -  - - - - - - -
“And I guess I miss my home..
I could not stay..”

-Chorus-
D||--4---------------------------------------------------------|
A||o-x---------------------------------------------------------|
F||--6-----------------------------4---------------------------|
C||--4--4-4-4-4-4-4-4-4-4-4-4-4-4--2-2-2-2-2-2-2-2-2-2-2-2-2-2-|
G||o-4--4-4-4-4-4-4-4-4-4-4-4-4-4--2-2-2-2-2-2-2-2-2-2-2-2-2-2-|
C||--4--4-4-4-4-4-4-4-4-4-4-4-4-4--2-2-2-2-2-2-2-2-2-2-2-2-2-2-|
“And I guess I miss my home...      I could not stay...”
“Maybe in a few years it'll come back to you”
“So sort me out.. Lay me away..”
D|------------------------------------------------------------||
A|-----------------------------------------------------------o||
F|-8----------------------------------------------------------||
C|-6--6-6-6-6-6-6-6-6-6-6-6-6-6--6/7-7-7-7-7-7-7/8-8-8-8-8-8--||
G|-6--6-6-6-6-6-6-6-6-6-6-6-6-6--6/7-7-7-7-7-7-7/8-8-8-8-8-8-o||
C|-6--6-6-6-6-6-6-6-6-6-6-6-6-6--6/7-7-7-7-7-7-7/8-8-8-8-8-8--||x3
“I’ll return...             it’s alright...        I’m okay...”
“Reflection becoming your virtue...”
“Over these mountains, I feel...”

D||-------------------------------------------------------------||----------|
A||o-----------------------------------------------------------o||----------|
F||-------------------------------------------------------------||----------|
C||--4---4---4---4---4---4---4---4---4---4---4---4---4---4---4--||----------|
G||o-4---4---4---4---4---4---4---4---4---4---4---4---4---4---4-o||--1-1-1-1-|
C||--4---4---4---4---4---4---4---4---4---4---4---4---4---4---4--||--1-1-1-1-|
“SAAAAFE!!”                                                         pm- - -

D|----------------------------------|
A|----------------------------------|
F|----------------------------------|
C|--4---4---4---4---4---4-----------|
G|--4---4---4---4---4---4---1-3-1-3-|
C|--4---4---4---4---4---4---1-3-1-3-|
                            pm- - -
D|----------------------------------|----------------|-----------|
A|----------------------------------|----pickslide---|-----------|
F|----------------------------------|--16x/////////--|-----------|
C|-4---4---4---4---4---4------------|--16x////////---|--feedback-|
G|-4---4---4---4---4---4---1-1-1-1--|--16x///////----|-----------|
C|-4---4---4---4---4---4---1-1-1-1--|----------------|-----------|
                           pm- - -
Tap to rate this tab
# A B C D E F G H I J K L M N O P Q R S T U V W X Y Z