Song name
# A B C D E F G H I J K L M N O P Q R S T U V W X Y Z

36 Crazyfists - The Great Descent tab

----------------------------------------------------------------------------
		     The Great Descent - 36 Crazyfists
----------------------------------------------------------------------------

Tabbed by: dtm187

Tuning: Drop C

Should be enough here to get you by.

Intro guitar 1
D|-------------------------------------------------------------------------|
A|-------------------------------------------------------------------------|
F|-7~------7-10~----------10-8~--------------------------------------------|
C|-----------------10~-----------------------------------------------------|
G|-------------------------------------------------------------------------|
C|-------------------------------------------------------------------------|

Intro guitar 2
D|-------------------------------------------------------------------------|
A|---10-----10-----10-----10-----10----------8-----8-----7-----7-----------|
F|------7------7------7------7------7----------7-----------8---------------|
C|-8------8------8------8------8------8----7-----7-----0-----0-------------|
G|-------------------------------------------------------------------------|
C|-------------------------------------------------------------------------|

Verse 1
D|-------------------------------------------------------------------------|
A|---10-----10-----10-----10-----10-------10-----10---------10-----10------|
F|------7------7------7------7------7--------7------7----------7------7----|
C|-8------8------8------8------8--------7------7------7---0------0------0--|
G|-------------------------------------------------------------------------|
C|-------------------------------------------------------------------------|

Verse 1 lead
D|-------------------------------------------------------------------------|
A|-------------------------------------------------------------------------|
F|-7~-----------------------------------5~---------------------------------|
C|-------------------------------------------------------------------------|
G|-------------------------------------------------------------------------|
C|-------------------------------------------------------------------------|

Chorus guitar 1
D|-------------------------------------------------------------------------|
A|-------------------------------------------------------------------------|
F|-------------------------------------------------------------------------|
C|-8--------7-------0------------------------------------------------------|
G|-8-(x16)--7-(x8)--0-(x8)-------------------------------------------------|
C|-8--------7-------0------------------------------------------------------|

Chorus guitar 2
D|-------------------------------------------------------------------------|
A|-10--------8-------7-----------------------------------------------------|
F|--x-(x16)--x-(x8)--x-(x8)------------------------------------------------|
C|--7--------5-------4-----------------------------------------------------|
G|-------------------------------------------------------------------------|
C|-------------------------------------------------------------------------|

Guitar 1
D|-------------------------------------------------------------------------|
A|-------------------------------------------------------------------------|
F|-7~------7-10~----------10-8~--------------------------------------------|
C|-----------------10~-----------------------------------------------------|
G|-------------------------------------------------------------------------|
C|-------------------------------------------------------------------------|

Guitar 2
D|-------------------------------------------------------------------------|
A|---10-----10-----10-----10-----10----------8-----8-----7-----7-----------|
F|------7------7------7------7------7----------7-----------8---------------|
C|-8------8------8------8------8------8----7-----7-----0-----0-------------|
G|-------------------------------------------------------------------------|
C|-------------------------------------------------------------------------|

Verse 2
D|-------------------------------------------------------------------------|
A|---10-----10-----10-----10-----10-------10-----10---------10-----10------|
F|------7------7------7------7------7--------7------7----------7------7----|
C|-8------8------8------8------8--------7------7------7---0------0------0--|
G|-------------------------------------------------------------------------|
C|-------------------------------------------------------------------------|

Verse 2 lead
D|-------------------------------------------------------------------------|
A|-------------------------------------------------------------------------|
F|-7~-----------------------------------5~---------------------------------|
C|-------------------------------------------------------------------------|
G|-------------------------------------------------------------------------|
C|-------------------------------------------------------------------------|

Pre-chorus
D|-------------------------------------------------------------------------|
A|-5*-5*-5*-5*-------------------------------------------------------------|
F|-5*-5*-5*-5*-------------------------------------------------------------|
C|-5*-5*-5*-5*-------------------------------------------------------------|
G|-------------------------------------------------------------------------|
C|-------------------------------------------------------------------------|

Chorus guitar 1
D|-------------------------------------------------------------------------|
A|-------------------------------------------------------------------------|
F|-------------------------------------------------------------------------|
C|-8--------7-------0------------------------------------------------------|
G|-8-(x16)--7-(x8)--0-(x8)-------------------------------------------------|
C|-8--------7-------0------------------------------------------------------|

Chorus guitar 2
D|-------------------------------------------------------------------------|
A|-10--------8-------7-----------------------------------------------------|
F|--x-(x16)--x-(x8)--x-(x8)------------------------------------------------|
C|--7--------5-------4-----------------------------------------------------|
G|-------------------------------------------------------------------------|
C|-------------------------------------------------------------------------|

Guitar 1
D|-------------------------------------------------------------------------|
A|-------------------------------------------------------------------------|
F|-------------------------------------------------------------------------|
C|-8-8-8-8---8-8-8-8---8-8---7-7-7-7---7-7-7-7---0-0-----------------------|
G|-8-8-8-8---8-8-8-8---8-8---7-7-7-7---7-7-7-7---0-0-----------------------|
C|-8-8-8-8---8-8-8-8---8-8---7-7-7-7---7-7-7-7---0-0-----------------------|

Guitar 2
D|-------------------------------------------------------------------------|
A|-10--------10--------8------8--------8---------7-------------------------|
F|--x-(x4)----x-(x4)---x-(x2)-x-(x4)---x-(x4)----x-(x2)--------------------|
C|--7---------7--------5------5--------5---------4-------------------------|
G|-------------------------------------------------------------------------|
C|-------------------------------------------------------------------------|

Guitar 1
D|-------------------------------------------------------------------------|
A|-------------------------------------------------------------------------|
F|-------------------------------------------------------------------------|
C|-8----7----8----10--12----8---7----5-------------------------------------|
G|-8----7----8----10--12----8---7----5-------------------------------------|
C|-8----7----8----10--12----8---7----5-------------------------------------|

Guitar 2
D|-------------------------------------------------------------------------|
A|-11---10---11----13---15--11---10----8-----------------------------------|
F|--x----x----x----x----x----x----x----x-----------------------------------|
C|--8----7----8----10---12---8----7----5-----------------------------------|
G|-------------------------------------------------------------------------|
C|-------------------------------------------------------------------------|


D|-------------------------------------------------------------------------|
A|---------11\------------9\-----------------------------------------------|
F|----------x\------------x\-----------------------------------------------|
C|-5-5-5-x--8\---5-5-5-x--6\-----------------------------------------------|
G|-5-5-5-x-------5-5-5-x---------------------------------------------------|
C|-5-5-5-x-------5-5-5-x---------------------------------------------------|


D|-------------------------------------------------------------------------|
A|-------------------------------------------------------------------------|
F|-------------------------------------------------------------------------|
C|-1-1-1----0--------------------------------------------------------------|
G|-1-1-1--x-0--------------------------------------------------------------|
C|-1-1-1--x-0--------------------------------------------------------------|

D|-------------------------------------------------------------------------|
A|-------------------------------------------------------------------------|
F|-------------------------------------------------------------------------|
C|-3--7--------------------------------------------------------------------|
G|-3--5--------------------------------------------------------------------|
C|-3--0--------------------------------------------------------------------|

Outro guitar 1
D|-------------------------------------------------------------------------|
A|-------------------------------------------------------------------------|
F|-7~------7-10~----------10-8~--------------------------------------------|
C|-----------------10~-----------------------------------------------------|
G|-------------------------------------------------------------------------|
C|-------------------------------------------------------------------------|

Outro guitar 2
D|-------------------------------------------------------------------------|
A|---10-----10-----10-----10-----10----------8-----8-----7-----7-----------|
F|------7------7------7------7------7----------7-----------8---------------|
C|-8------8------8------8------8------8----7-----7-----0-----0-------------|
G|-------------------------------------------------------------------------|
C|-------------------------------------------------------------------------|



| /  slide up
| \  slide down
| h  hammer-on
| p  pull-off
| ~  let ring
| *  Harmonic
| x  Mute string
| .  Palm mute
| b  Bend note	
============================================================================
Tap to rate this tab
# A B C D E F G H I J K L M N O P Q R S T U V W X Y Z