Song name
# A B C D E F G H I J K L M N O P Q R S T U V W X Y Z

36 Crazyfists - We Gave It Hell tab

36 Crazyfists-We Gave It Hell
Tabbed By Ryan Ryngaert
Drop C Tuning C, G, C, F, A, D

Intro
D------------------------------------|
A------------------------------------|
F------------------------------------|
C-5-5-5-2--5-5-5-2--5-5-5-0--5-5-5-2-|Hold
G-5-5-5-2--5-5-5-2--5-5-5-0--5-5-5-2-|Hold
C-5-5-5-2--5-5-5-2--5-5-5-0--5-5-5-2-|Hold

Verse
D-----------------------------|x3
A-----------------------------|
F-----------------------------|
C---------------------5-5-5-2-|
G---------------------5-5-5-2-|
C-2-0-2-5-2-0-5-0-2-0-5-5-5-2-|

2nd Verse
D---------------------------|
A---------------------------|
F---------------------------|
C---------------------------|
G-----5-----5-----5---6-6-6-|
C-0-0---0-0---0-0---0-------|

Verse
D-----------------------------|x2
A-----------------------------|
F-----------------------------|
C---------------------5-5-5-2-|
G---------------------5-5-5-2-|
C-2-0-2-5-2-0-5-0-2-0-5-5-5-2-|

Chorus (Play twice)
D-----------------------|
A-----------------------|
F-----------------------|
C-7-5-9-10-7-9-10-12-14-|
G-5-3-7-8--5-7-8--10-12-|
C-----------------------|

Verse
D-----------------------------|x3
A-----------------------------|
F-----------------------------|
C---------------------5-5-5-2-|
G---------------------5-5-5-2-|
C-2-0-2-5-2-0-5-0-2-0-5-5-5-2-|

2nd Verse
D---------------------------|x2
A---------------------------|
F---------------------------|
C---------------------------|
G-----5-----5-----5---6-6-6-|
C-0-0---0-0---0-0---0-------|

Verse
D-----------------------------|x2
A-----------------------------|
F-----------------------------|
C---------------------5-5-5-2-|
G---------------------5-5-5-2-|
C-2-0-2-5-2-0-5-0-2-0-5-5-5-2-|

Chorus (Play twice)
D-----------------------|
A-----------------------|
F-----------------------|
C-7-5-9-10-7-9-10-12-14-|
G-5-3-7-8--5-7-8--10-12-|
C-----------------------|

Well, That's as far as I got so far. The ending is just the chorus again but, I'm trying 
get the full bridge. I'll post it A.S.A.P.
Thank you and enjoy THE FIRST TAB of We Gave It Hell by 36 Crazyfists
Tap to rate this tab
# A B C D E F G H I J K L M N O P Q R S T U V W X Y Z