Song name
# A B C D E F G H I J K L M N O P Q R S T U V W X Y Z

36 Crazyfists - Vast And Vague tab

Vast And Vague
36 Crazyfists
The Tide And Its Takers
Drop C- CGCFAD

-Intro-
Gtr 1
D|-----------------------------------------|
A|-----------------------------------------|
F|-12-12-12--12-12-12--12-12-12--12-12--12-|
C|-x--x--x---x--x--x---x--x--x---x--x---x--|
G|-10-10-10--10-10-10--10-10-10--10-10--10-|
C|-----------------------------------------|

-Verse-
Gtr 1,2
D||------------------------------------------------|
A||o-----------------------------------------------|
F||--12-12-12--12-12-12--12-12-12--12-12--12-12-12-|
C||--x--x--x---x--x--x---x--x--x---x--x---x--x--x--|
G||o-10-10-10--10-10-10--10-10-10--10-10--8--8--8--|
C||------------------------------------------------|
-"We hit the floor with little certainty, then
-Outlining all the ways of which to be
-The scenery we hoped for has taken over and
D|----------------------------------||
A|---------------------------------o||
F|-12-12-12--12-12-12--12-12-12-12--||
C|-x--x--x---x--x--x---x--x--x--x---||
G|-8--8--8---7--7--7---8--8--8--10-o||
C|----------------------------------||x4
...Truth enter with more...
...But no longer...
...Now more than ever you'll find out"

-Pre Chorus-
D|--------------------------------------------------------------|
A|--------------------------------------------------------------|
F|--------------------------------------------------------------|
C|--------------------------------------------------------------|
G|--------------------------------------------------------------|
C|-5-6-5--3-0-3-5-6-5~--3-0-3-5-6-5~--3-0-3-5-6-5~--3-0-3-5-6-5-|
"Why... I try... To fight these changes"

D|-----------------------------------------------------|
A|-----------------------------------------------------|
F|-----------------------------------------------------|
C|-3-0-3-5-6--5*-3-0-3-5-6--5*-3-0-3-5-6--5*-3-0-3-5-6-|
G|-3-0-3-5-6-----3-0-3-5-6-----3-0-3-5-6-----3-0-3-5-6-|
C|-3-0-3-5-6-----3-0-3-5-6-----3-0-3-5-6-----3-0-3-5-6-|
"BATTLING ME! I CHOOSE THESE CHAINS! INSIDE JUST, IMPLODING"

-Chorus-
Gtr 1- Light Distortion
D|-----------------------------------------------------------|
A|----8-8------------6-6------------8-8------------6-6-------|
F|----7---7----------5---5----------7---7----------5---5-----|
C|-5--5-------5---3--3-------3---5--5-------5---3--3-------3-|
G|-5--------5-----3--------3-----5--------5-----3--------3---|
C|-5--------------3--------------5--------------3------------|
"Slowing the sound (I eat at this alive)...
...Slowing the sound (For the sake of)"

Gtr 1,2- Distortion
D|---------|
A|---------|
F|---------|
C|-1--3--5-|
G|-1--3--5-|
C|-1--3--5-|
BREAKING TEETH!!

D||--------------------------------------------------------||
A||o------------------------------------------------------o||
F||---------<5>~~~--------------<5>~~~---------------------||
C||----------<5>~~~--------------<5>~~~--3/5-5-5-5-9--3/5--||
G||o-0-0-0------------0--0-0-0-----------3/5-5-5-5-9--3/5-o||
C||--0-0-0------------0--0-0-0-----------3/5-5-5-5-9--3/5--||
     - - -            -  - - -
"Resist within, where true hearts ignite (where true hearts ignite)
...Engage within, fight to hold hearts high (to hold hearts high)"

Gtr 1
D|-----------------------------------------|
A|-----------------------------------------|
F|-12-12-12--12-12-12--12-12-12--12-12--12-|
C|-x--x--x---x--x--x---x--x--x---x--x---x--|
G|-10-10-10--10-10-10--10-10-10--10-10--10-|
C|-----------------------------------------|

-Verse-
Gtr 1,2
D||------------------------------------------------|
A||o-----------------------------------------------|
F||--12-12-12--12-12-12--12-12-12--12-12--12-12-12-|
C||--x--x--x---x--x--x---x--x--x---x--x---x--x--x--|
G||o-10-10-10--10-10-10--10-10-10--10-10--8--8--8--|
C||------------------------------------------------|
-"With nothing left I aim on anything
-The lack of faith and hope and the between
-The fight thats never ending and
-Back it in the corner
D|----------------------------------||
A|---------------------------------o||
F|-12-12-12--12-12-12--12-12-12-12--||
C|-x--x--x---x--x--x---x--x--x--x---||
G|-8--8--8---7--7--7---8--8--8--10-o||
C|----------------------------------||x4
...To give me a repeat
...But its endless
...The body full of heart
...Watch it tear this"

-Pre Chorus-
D|--------------------------------------------------------------|
A|--------------------------------------------------------------|
F|--------------------------------------------------------------|
C|--------------------------------------------------------------|
G|--------------------------------------------------------------|
C|-5-6-5--3-0-3-5-6-5~--3-0-3-5-6-5~--3-0-3-5-6-5~--3-0-3-5-6-5-|
"Apart... From limb... to limb, it strikes on anything"

D|-----------------------------------------------------|
A|-----------------------------------------------------|
F|-----------------------------------------------------|
C|-3-0-3-5-6--5*-3-0-3-5-6--5*-3-0-3-5-6--5*-3-0-3-5-6-|
G|-3-0-3-5-6-----3-0-3-5-6-----3-0-3-5-6-----3-0-3-5-6-|
C|-3-0-3-5-6-----3-0-3-5-6-----3-0-3-5-6-----3-0-3-5-6-|
"THAT MAKES ITSELF THE ENEMY!... SURVIVE!!!"

-Chorus-
Gtr 1- Light Distortion
D|-----------------------------------------------------------|
A|----8-8------------6-6------------8-8------------6-6-------|
F|----7---7----------5---5----------7---7----------5---5-----|
C|-5--5-------5---3--3-------3---5--5-------5---3--3-------3-|
G|-5--------5-----3--------3-----5--------5-----3--------3---|
C|-5--------------3--------------5--------------3------------|
"Slowing the sound (I eat at this alive)...
...Slowing the sound (For the sake of)"

Gtr 1,2- Distortion
D|---------|
A|---------|
F|---------|
C|-1--3--5-|
G|-1--3--5-|
C|-1--3--5-|
BREAKING TEETH!!

D||--------------------------------------------------------||------|
A||o------------------------------------------------------o||------|
F||---------<5>~~~--------------<5>~~~---------------------||------|
C||----------<5>~~~--------------<5>~~~--3/5-5-5-5-9--3/5--||-5~~~-|
G||o-0-0-0------------0--0-0-0-----------3/5-5-5-5-9--3/5-o||-5~~~-|
C||--0-0-0------------0--0-0-0-----------3/5-5-5-5-9--3/5--||-5~~~-|
     - - -            -  - - -
"Resist within, where true hearts ignite (where true hearts ignite)
...Engage within, fight to hold hearts high (FIGHT TO HOLD HEARTS HIGH!)"

-Breakdown-
D|-----------------------------------------------------------------|
A|-----------------------------------------------------------------|
F|-----------------------------------------------------------------|
C|-1-1-1-1-1-1-1-1-5-5-5-5-5-5-5-5-1-1-1-1-1-1-1-1-3-3-3-3-3-5-5-5-|
G|-1-1-1-1-1-1-1-1-5-5-5-5-5-5-5-5-1-1-1-1-1-1-1-1-3-3-3-3-3-5-5-5-|
C|-1-1-1-1-1-1-1-1-5-5-5-5-5-5-5-5-1-1-1-1-1-1-1-1-3-3-3-3-3-5-5-5-|
"We are the ones, the tried and true. We are the chosen few..."

D||---------------------------------------------------------------||
A||o-------------------------------------------------------------o||
F||---------------------------------------------------------------||
C||---------------------------------------------------------------||
G||o---------------------0-0-0--0-0-0--0--0--0-0-0--0-0-0--0-0-0-o||
C||-7-5-7-5--5-3-5-3-5-5-0-0-0--0-0-0--0--0--0-0-0--0-0-0--0-0-0--||
    - - - -  - - - - - - - - -  - - -  -  -  - - -  - - -  - - -
"EMBRACE THE RAGE YOU HOLD INSIDE! (EMBRACE THE RAGE YOU HOLD INSIDE!)
...BURST FROM THE FLAMES"

D|--------------------------------------------------------|
A|--------------------------------------------------------|
F|--------------------------------------------------------|
C|--------------------------------------------------------|
G|---------------------0-0-0~~-0-0-0~~-0--0---------------|
C|-7-5-7-5--5-3-5-3----0-0-0~~-0-0-0~~-0--0--12-10-8-10-8-|
   - - - -  - - - -    - - -   - - -   -  -  -  -  - -  -
"RECLAIM THE ... HEEIIISST..."
D|----------------------------------------------------------|
A|----------------------------------------------------------|
F|----------------------------------------------------------|
C|----------------------------------------------------------|
G|-0-0-0~~-0-0-0~~-0--0----------------0-0-0~~-0-0-0~~-0--0-|
C|-0-0-0~~-0-0-0~~-0--0--12-10-8-10-8--0-0-0~~-0-0-0~~-0--0-|
   - - -   - - -   -  -  -  -  - -  -  - - -   - - -   -  -
                      "WE WON'T FALL!!"
D|--------------------------------------------|
A|--------------------------------------------|
F|--------------------------------------------|
C|--------------------------------------------|
G|---------------0-0-0~~-0-0-0~~-0--0-------3-|
C|-12-10-8-10-8--0-0-0~~-0-0-0~~-0--0-3-3-3-3-|
   -  -  - -  -  - - -   - - -   -  - - - -
"WE WON'T FAAAAAAALLLLLLLLLLL"

Gtr 1 w/ Delay
D||---------------------------------------------------||
A||o-------------------------------------------------o||
F||---------------------------------------------------||
C||----------12-(12)-(12)------10-(10)-(10)-12-10-12--||
G||o-------------------------------------------------o||
C||--12-10-8-(8)-------12-10-8-(8)--------------------||x4
"Slowing the sound, I eat at this alive
...Slowing the sound, I eat at this alive
...For the sake of breaking"

Gtr 1,2- Distortion
D|------------------|
A|------------------|
F|------------------|
C|-1--3--5--3--6--5-|
G|-1--3--5--3--6--5-|
C|-1--3--5--3--6--5-|
BREAKING TEETH!!

-Chorus-
D||--------------------------------------------------------||
A||o------------------------------------------------------o||
F||---------<5>~~~--------------<5>~~~---------------------||
C||----------<5>~~~--------------<5>~~~--3/5-5-5-5-9--3/5--||
G||o-0-0-0------------0--0-0-0-----------3/5-5-5-5-9--3/5-o||
C||--0-0-0------------0--0-0-0-----------3/5-5-5-5-9--3/5--||x4
     - - -            -  - - -
"Resist the end, where true hearts ignite (where true hearts ignite)
...Engage within, fight to hold hearts high (to hold hearts high)
...We stand (WE STAND!)
...We stand the tried and true (WE STAND THE TRIED AND TRUE!)
...We stand (WE STAND!) WE STAND!
...We stand the chosen few (We stand the chosen few)"


Gtr 1
D|------------------------------|
A|------------------------------|
F|-12-12-12--12-12-12--12-12-12-|
C|-x--x--x---x--x--x---x--x--x--|
G|-10-10-10--10-10-10--10-10-10-|
C|------------------------------|

-Outro-
D||----------------------------------------------------------------------||
A||o--------------------------------------------------------------------o||
F||----------------------------------------------------------------------||
C||----------------------------------------------------------------------||
G||o-0-0-0---0-0-0---0--0---0-0-0---0-0-0---0-0-0-----------------------o||
C||--0-0-0---0-0-0---0--0---0-0-0---0-0-0---0-0-0--7-5-7-5--5-3-5-3-5-5--||
     - - -   - - -   -  -   - - -   - - -   - - -  - - - -  - - - - - -
"WE!! WILL, FIND A WAY!! WE! WILL, FIND A WAY!! WE! WILL, FIND A WAY!!"

D||--------------------------------------||-------------------------|
A||o------------------------------------o||-------------------------|
F||--------------------------------------||x3-----------------------|
C||--------------------------------------||-------------------------|
G||o-0-0-0~~-0-0-0~~-0--0---------------o||----0-0-0~~-0-0-0~~-0--0-|
C||--0-0-0~~-0-0-0~~-0--0--12-10-8-10-8--||----0-0-0~~-0-0-0~~-0--0-|
     - - -   - - -   -  -  -  -  - -  -        - - -   - - -   -  -
"OHHHH"

Don't know that last bit. -_-
Tap to rate this tab
# A B C D E F G H I J K L M N O P Q R S T U V W X Y Z