Guitaretab - guitar tabs
Song name
# A B C D E F G H I J K L M N O P Q R S T U V W X Y Z

36 Crazyfists - The Back Harlow Road tab

i started this song about ten minutes ago cause i saw someone Ask for it hehe.
soo here. its just the intro and chorus bit for now. ill be working on it tonight. soo 
rest will be on here by , ugh, This week.

tabbed by - kasey
tuning - Drop C

guitar 1 0.02
D|---------------------|---------------------------------------|
A|----555555555555555--|--55555555559999999-88888888888888888--|
F|----------999999999--|------------9999999--------1212121212--|
C|---------------------|---------------------------------------|
G|---------------------|---------------------------------------|
C|---------------------|---------------------------------------|
Bend the 9's after a second or two.

Guitar 1 0.33
D|---------------------|---------------------------------------|
A|----555555555555555--|--55555555559999999-88888888888888888--|
F|----------999999999--|------------9999999--------1212121212--|
C|---------------------|---------------------------------------|
G|---------------------|---------------------------------------|
C|---------------------|---------------------------------------|

guitar 2 0.55
D|------------------------|
A|------------------------|
F|------------------------|
C|-----222222-------------|
G|-----222222-------------|
C|-----222222-------------|
[ Tab from: http://www.guitaretab.com/numeric/36-crazyfists/192670.html ]
guitar 2 0.58
D|-------------------------------------------|--------------|
A|-------------------------------------------|--------------|
F|-------------------------------------------|--------------| i think =]
C|--00000---0000-----000000---000000--00000--|-----3-5-2-3--|
G|--00000---0000-----000000---000000--00000--|-----3-5-2-3--|
C|--00000---0000-----000000---000000--00000--|-----3-5-2-3--|
PM  *****   ****     ******   ******  *****

Guitar 1 0.58
D|------------------------------------------|
A|--------5555555555555555-666666666666666--|
F|---------------999999999--------10101010--|
C|------------------------------------------| He does this like
G|------------------------------------------|    4 or 6 times.
C|------------------------------------------|

guitar 1 1.10
D|------------------------------|
A|------------------------------|
F|------------------------------|
C|--33333333--5555555--7777777--| I still havnt worked out guitar two
G|--33333333--5555555--7777777--|           Part yet. sorry =/
C|--33333333--5555555--7777777--|

guitar 2 1.29
D|-------------------------------------------|--------------|
A|-------------------------------------------|--------------|
F|-------------------------------------------|--------------|
C|--00000---0000-----000000---000000--00000--|-----3-5-2-3--|
G|--00000---0000-----000000---000000--00000--|-----3-5-2-3--|
C|--00000---0000-----000000---000000--00000--|-----3-5-2-3--|
PM  *****   ****     ******   ******  *****

guitar one 1.29
D|---------------------|---------------------------------------|
A|----555555555555555--|--55555555559999999-88888888888888888--|
F|----------999999999--|------------9999999--------1212121212--|
C|---------------------|---------------------------------------|
G|---------------------|---------------------------------------|
C|---------------------|---------------------------------------|

Okay. thats all i got upto from now. but i will finish it =]. i promise.
Related for The Back Harlow Road tab
The Back Harlow Road chords by 36 Crazyfists